  0
SECTION
  2
HEADER
  9
$ACADVER
  1
AC1015
  9
$ACADMAINTVER
 70
    20
  9
$DWGCODEPAGE
  3
ANSI_932
  9
$INSBASE
 10
0.0
 20
0.0
 30
0.0
  9
$EXTMIN
 10
3.191529301916716
 20
2.71005318489631
 30
-0.0000000000000129
  9
$EXTMAX
 10
404.5358285966049
 20
294.199310990981
 30
0.0000000000000023
  9
$LIMMIN
 10
0.0
 20
0.0
  9
$LIMMAX
 10
420.0
 20
297.0
  9
$ORTHOMODE
 70
     0
  9
$REGENMODE
 70
     1
  9
$FILLMODE
 70
     1
  9
$QTEXTMODE
 70
     0
  9
$MIRRTEXT
 70
     1
  9
$LTSCALE
 40
12.0
  9
$ATTMODE
 70
     1
  9
$TEXTSIZE
 40
10.0
  9
$TRACEWID
 40
0.3
  9
$TEXTSTYLE
  7
0
  9
$CLAYER
  8
0
  9
$CELTYPE
  6
ByLayer
  9
$CECOLOR
 62
   256
  9
$CELTSCALE
 40
1.0
  9
$DISPSILH
 70
     0
  9
$DIMSCALE
 40
1.0
  9
$DIMASZ
 40
2.0
  9
$DIMEXO
 40
0.0625
  9
$DIMDLI
 40
0.38
  9
$DIMRND
 40
0.0
  9
$DIMDLE
 40
0.0
  9
$DIMEXE
 40
0.18
  9
$DIMTP
 40
0.0
  9
$DIMTM
 40
0.0
  9
$DIMTXT
 40
2.0
  9
$DIMCEN
 40
0.09
  9
$DIMTSZ
 40
0.0
  9
$DIMTOL
 70
     0
  9
$DIMLIM
 70
     0
  9
$DIMTIH
 70
     1
  9
$DIMTOH
 70
     1
  9
$DIMSE1
 70
     0
  9
$DIMSE2
 70
     0
  9
$DIMTAD
 70
     0
  9
$DIMZIN
 70
     0
  9
$DIMBLK
  1

  9
$DIMASO
 70
     1
  9
$DIMSHO
 70
     0
  9
$DIMPOST
  1

  9
$DIMAPOST
  1

  9
$DIMALT
 70
     0
  9
$DIMALTD
 70
     2
  9
$DIMALTF
 40
25.4
  9
$DIMLFAC
 40
1.0
  9
$DIMTOFL
 70
     0
  9
$DIMTVP
 40
0.0
  9
$DIMTIX
 70
     0
  9
$DIMSOXD
 70
     0
  9
$DIMSAH
 70
     0
  9
$DIMBLK1
  1

  9
$DIMBLK2
  1

  9
$DIMSTYLE
  2
Standard
  9
$DIMCLRD
 70
     0
  9
$DIMCLRE
 70
     0
  9
$DIMCLRT
 70
     0
  9
$DIMTFAC
 40
1.0
  9
$DIMGAP
 40
0.09
  9
$DIMJUST
 70
     0
  9
$DIMSD1
 70
     0
  9
$DIMSD2
 70
     0
  9
$DIMTOLJ
 70
     1
  9
$DIMTZIN
 70
     0
  9
$DIMALTZ
 70
     0
  9
$DIMALTTZ
 70
     0
  9
$DIMUPT
 70
     0
  9
$DIMDEC
 70
     4
  9
$DIMTDEC
 70
     4
  9
$DIMALTU
 70
     2
  9
$DIMALTTD
 70
     2
  9
$DIMTXSTY
  7
STANDARD
  9
$DIMAUNIT
 70
     0
  9
$DIMADEC
 70
     0
  9
$DIMALTRND
 40
0.0
  9
$DIMAZIN
 70
     0
  9
$DIMDSEP
 70
    46
  9
$DIMATFIT
 70
     3
  9
$DIMFRAC
 70
     0
  9
$DIMLDRBLK
  1

  9
$DIMLUNIT
 70
     2
  9
$DIMLWD
 70
    -2
  9
$DIMLWE
 70
    -2
  9
$DIMTMOVE
 70
     0
  9
$LUNITS
 70
     2
  9
$LUPREC
 70
     4
  9
$SKETCHINC
 40
0.1
  9
$FILLETRAD
 40
0.0
  9
$AUNITS
 70
     0
  9
$AUPREC
 70
     1
  9
$MENU
  1
ACAD
  9
$ELEVATION
 40
0.0
  9
$PELEVATION
 40
0.0
  9
$THICKNESS
 40
0.0
  9
$LIMCHECK
 70
     0
  9
$CHAMFERA
 40
0.0
  9
$CHAMFERB
 40
0.0
  9
$CHAMFERC
 40
0.0
  9
$CHAMFERD
 40
0.0
  9
$SKPOLY
 70
     0
  9
$TDCREATE
 40
2450808.702418171
  9
$TDUCREATE
 40
2450808.327418172
  9
$TDUPDATE
 40
2456199.662148438
  9
$TDUUPDATE
 40
2456199.287148438
  9
$TDINDWG
 40
1.6976368403
  9
$TDUSRTIMER
 40
1.6976368403
  9
$USRTIMER
 70
     1
  9
$ANGBASE
 50
0.0
  9
$ANGDIR
 70
     0
  9
$PDMODE
 70
     0
  9
$PDSIZE
 40
0.0
  9
$PLINEWID
 40
1.0
  9
$SPLFRAME
 70
     0
  9
$SPLINETYPE
 70
     6
  9
$SPLINESEGS
 70
     8
  9
$HANDSEED
  5
1FD9
  9
$SURFTAB1
 70
     6
  9
$SURFTAB2
 70
     6
  9
$SURFTYPE
 70
     6
  9
$SURFU
 70
     6
  9
$SURFV
 70
     6
  9
$UCSBASE
  2

  9
$UCSNAME
  2

  9
$UCSORG
 10
0.0
 20
0.0
 30
0.0
  9
$UCSXDIR
 10
1.0
 20
0.0
 30
0.0
  9
$UCSYDIR
 10
0.0
 20
1.0
 30
0.0
  9
$UCSORTHOREF
  2

  9
$UCSORTHOVIEW
 70
     0
  9
$UCSORGTOP
 10
0.0
 20
0.0
 30
0.0
  9
$UCSORGBOTTOM
 10
0.0
 20
0.0
 30
0.0
  9
$UCSORGLEFT
 10
0.0
 20
0.0
 30
0.0
  9
$UCSORGRIGHT
 10
0.0
 20
0.0
 30
0.0
  9
$UCSORGFRONT
 10
0.0
 20
0.0
 30
0.0
  9
$UCSORGBACK
 10
0.0
 20
0.0
 30
0.0
  9
$PUCSBASE
  2

  9
$PUCSNAME
  2

  9
$PUCSORG
 10
0.0
 20
0.0
 30
0.0
  9
$PUCSXDIR
 10
1.0
 20
0.0
 30
0.0
  9
$PUCSYDIR
 10
0.0
 20
1.0
 30
0.0
  9
$PUCSORTHOREF
  2

  9
$PUCSORTHOVIEW
 70
     0
  9
$PUCSORGTOP
 10
0.0
 20
0.0
 30
0.0
  9
$PUCSORGBOTTOM
 10
0.0
 20
0.0
 30
0.0
  9
$PUCSORGLEFT
 10
0.0
 20
0.0
 30
0.0
  9
$PUCSORGRIGHT
 10
0.0
 20
0.0
 30
0.0
  9
$PUCSORGFRONT
 10
0.0
 20
0.0
 30
0.0
  9
$PUCSORGBACK
 10
0.0
 20
0.0
 30
0.0
  9
$USERI1
 70
     0
  9
$USERI2
 70
     0
  9
$USERI3
 70
     0
  9
$USERI4
 70
     0
  9
$USERI5
 70
     0
  9
$USERR1
 40
0.0
  9
$USERR2
 40
0.0
  9
$USERR3
 40
0.0
  9
$USERR4
 40
0.0
  9
$USERR5
 40
0.0
  9
$WORLDVIEW
 70
     1
  9
$SHADEDGE
 70
     3
  9
$SHADEDIF
 70
    70
  9
$TILEMODE
 70
     1
  9
$MAXACTVP
 70
    16
  9
$PINSBASE
 10
0.0
 20
0.0
 30
0.0
  9
$PLIMCHECK
 70
     0
  9
$PEXTMIN
 10
1.000000000000000E+20
 20
1.000000000000000E+20
 30
1.000000000000000E+20
  9
$PEXTMAX
 10
-1.000000000000000E+20
 20
-1.000000000000000E+20
 30
-1.000000000000000E+20
  9
$PLIMMIN
 10
0.0
 20
0.0
  9
$PLIMMAX
 10
12.0
 20
9.0
  9
$UNITMODE
 70
     0
  9
$VISRETAIN
 70
     0
  9
$PLINEGEN
 70
     0
  9
$PSLTSCALE
 70
     0
  9
$TREEDEPTH
 70
  3020
  9
$CMLSTYLE
  2
Standard
  9
$CMLJUST
 70
     0
  9
$CMLSCALE
 40
1.0
  9
$PROXYGRAPHICS
 70
     1
  9
$MEASUREMENT
 70
     0
  9
$CELWEIGHT
370
    -1
  9
$ENDCAPS
280
     0
  9
$JOINSTYLE
280
     0
  9
$LWDISPLAY
290
     0
  9
$INSUNITS
 70
     0
  9
$HYPERLINKBASE
  1

  9
$STYLESHEET
  1
monochrome.ctb
  9
$XEDIT
290
     1
  9
$CEPSNTYPE
380
     0
  9
$PSTYLEMODE
290
     1
  9
$FINGERPRINTGUID
  2
{51BC8342-4694-11D4-A1F9-0060672295C7}
  9
$VERSIONGUID
  2
{857C50D3-FFF0-475B-9CD2-D1B4F6FA0C24}
  9
$EXTNAMES
290
     1
  9
$PSVPSCALE
 40
0.0
  9
$OLESTARTUP
290
     0
  0
ENDSEC
  0
SECTION
  2
CLASSES
  0
CLASS
  1
ACDBDICTIONARYWDFLT
  2
AcDbDictionaryWithDefault
  3
ObjectDBX Classes
 90
        0
280
     0
281
     0
  0
CLASS
  1
ACDBPLACEHOLDER
  2
AcDbPlaceHolder
  3
ObjectDBX Classes
 90
        0
280
     0
281
     0
  0
CLASS
  1
LAYOUT
  2
AcDbLayout
  3
ObjectDBX Classes
 90
        0
280
     0
281
     0
  0
CLASS
  1
TABLESTYLE
  2
AcDbTableStyle
  3
ObjectDBX Classes
 90
     2047
280
     0
281
     0
  0
CLASS
  1
DICTIONARYVAR
  2
AcDbDictionaryVar
  3
ObjectDBX Classes
 90
        0
280
     0
281
     0
  0
ENDSEC
  0
SECTION
  2
TABLES
  0
TABLE
  2
VPORT
  5
8
330
0
100
AcDbSymbolTable
 70
     3
  0
VPORT
  5
1FD1
330
8
100
AcDbSymbolTableRecord
100
AcDbViewportTableRecord
  2
*Active
 70
     0
 10
0.0
 20
0.0
 11
1.0
 21
1.0
 12
210.0
 22
148.5
 13
0.0
 23
0.0
 14
0.001
 24
0.001
 15
10.0
 25
10.0
 16
0.0
 26
0.0
 36
1.0
 17
0.0
 27
0.0
 37
0.0
 40
300.6
 41
2.417004048582995
 42
50.0
 43
0.0
 44
0.0
 50
0.0
 51
0.0
 71
     0
 72
  2000
 73
     1
 74
     0
 75
     1
 76
     1
 77
     0
 78
     2
281
     0
 65
     1
110
0.0
120
0.0
130
0.0
111
1.0
121
0.0
131
0.0
112
0.0
122
1.0
132
0.0
 79
     0
146
0.0
  0
ENDTAB
  0
TABLE
  2
LTYPE
  5
5
330
0
100
AcDbSymbolTable
 70
     3
  0
LTYPE
  5
13
330
5
100
AcDbSymbolTableRecord
100
AcDbLinetypeTableRecord
  2
ByBlock
 70
     0
  3

 72
    65
 73
     0
 40
0.0
  0
LTYPE
  5
14
330
5
100
AcDbSymbolTableRecord
100
AcDbLinetypeTableRecord
  2
ByLayer
 70
     0
  3

 72
    65
 73
     0
 40
0.0
  0
LTYPE
  5
15
330
5
100
AcDbSymbolTableRecord
100
AcDbLinetypeTableRecord
  2
CONTINUOUS
 70
     0
  3
実線
 72
    65
 73
     0
 40
0.0
  0
LTYPE
  5
23
330
5
100
AcDbSymbolTableRecord
100
AcDbLinetypeTableRecord
  2
CENTER
 70
     0
  3
____ _ ____ _ ____ _ ____ _ ____ _ ____ _ ____
 72
    65
 73
     4
 40
2.0
 49
1.25
 74
     0
 49
-0.25
 74
     0
 49
0.25
 74
     0
 49
-0.25
 74
     0
  0
LTYPE
  5
24
330
5
100
AcDbSymbolTableRecord
100
AcDbLinetypeTableRecord
  2
HIDDEN
 70
     0
  3
_ _ _ _ _ _ _ _ _ _ _ _ _ _ _ _ _ _ _ _ _ _ _
 72
    65
 73
     2
 40
0.375
 49
0.25
 74
     0
 49
-0.125
 74
     0
  0
ENDTAB
  0
TABLE
  2
LAYER
  5
2
330
0
100
AcDbSymbolTable
 70
     9
  0
LAYER
  5
10
330
2
100
AcDbSymbolTableRecord
100
AcDbLayerTableRecord
  2
0
 70
     0
 62
     7
  6
CONTINUOUS
370
    -3
390
F
  0
LAYER
  5
28
330
2
100
AcDbSymbolTableRecord
100
AcDbLayerTableRecord
  2
HO
 70
     0
 62
     2
  6
CENTER
370
    13
390
F
  0
LAYER
  5
29
330
2
100
AcDbSymbolTableRecord
100
AcDbLayerTableRecord
  2
HA
 70
     0
 62
     4
  6
HIDDEN
370
    13
390
F
  0
LAYER
  5
2A
330
2
100
AcDbSymbolTableRecord
100
AcDbLayerTableRecord
  2
SB
 70
     0
 62
     1
  6
CONTINUOUS
370
    20
390
F
  0
LAYER
  5
2B
330
2
100
AcDbSymbolTableRecord
100
AcDbLayerTableRecord
  2
SA
 70
     0
 62
     7
  6
CONTINUOUS
370
    30
390
F
  0
LAYER
  5
2C
330
2
100
AcDbSymbolTableRecord
100
AcDbLayerTableRecord
  2
MO
 70
     0
 62
     3
  6
CONTINUOUS
370
    20
390
F
  0
LAYER
  5
2D
330
2
100
AcDbSymbolTableRecord
100
AcDbLayerTableRecord
  2
SC
 70
     0
 62
     6
  6
CONTINUOUS
370
    13
390
F
  0
LAYER
  5
2E
330
2
100
AcDbSymbolTableRecord
100
AcDbLayerTableRecord
  2
DEFPOINTS
 70
     0
 62
     7
  6
CONTINUOUS
290
     0
370
    -3
390
F
  0
LAYER
  5
1397
330
2
100
AcDbSymbolTableRecord
100
AcDbLayerTableRecord
  2
sd
 70
     0
 62
     1
  6
CONTINUOUS
370
    20
390
F
  0
ENDTAB
  0
TABLE
  2
STYLE
  5
3
330
0
100
AcDbSymbolTable
 70
     2
  0
STYLE
  5
11
330
3
100
AcDbSymbolTableRecord
100
AcDbTextStyleTableRecord
  2
STANDARD
 70
     0
 40
0.0
 41
1.0
 50
0.0
 71
     0
 42
0.2
  3
TXT
  4

  0
STYLE
  5
22
330
3
100
AcDbSymbolTableRecord
100
AcDbTextStyleTableRecord
  2
0
 70
     0
 40
0.0
 41
1.0
 50
0.0
 71
     0
 42
10.0
  3
SIMPLEX
  4
BIGFONT
  0
ENDTAB
  0
TABLE
  2
VIEW
  5
6
330
0
100
AcDbSymbolTable
 70
     1
  0
VIEW
  5
25
330
6
100
AcDbSymbolTableRecord
100
AcDbViewTableRecord
  2
HYOU
 70
     0
 40
162.519
 10
329.94
 20
84.5855
 41
158.206
 11
0.0
 21
0.0
 31
1.0
 12
0.0
 22
0.0
 32
0.0
 42
0.0
 43
0.0
 44
0.0
 50
0.0
 71
     0
281
     0
 72
     0
  0
ENDTAB
  0
TABLE
  2
UCS
  5
7
330
0
100
AcDbSymbolTable
 70
     0
  0
ENDTAB
  0
TABLE
  2
APPID
  5
9
330
0
100
AcDbSymbolTable
 70
     2
  0
APPID
  5
12
330
9
100
AcDbSymbolTableRecord
100
AcDbRegAppTableRecord
  2
ACAD
 70
     0
  0
APPID
  5
17B3
330
9
100
AcDbSymbolTableRecord
100
AcDbRegAppTableRecord
  2
ACAD_PSEXT
 70
     0
  0
ENDTAB
  0
TABLE
  2
DIMSTYLE
  5
A
330
0
100
AcDbSymbolTable
 70
     1
100
AcDbDimStyleTable
 71
     1
340
3C3
  0
DIMSTYLE
105
3C3
330
A
100
AcDbSymbolTableRecord
100
AcDbDimStyleTableRecord
  2
Standard
 70
     0
 41
2.0
140
2.0
340
11
  0
ENDTAB
  0
TABLE
  2
BLOCK_RECORD
  5
1
330
0
100
AcDbSymbolTable
 70
     1
  0
BLOCK_RECORD
  5
1E
330
1
100
AcDbSymbolTableRecord
100
AcDbBlockTableRecord
  2
*Model_Space
340
21
  0
BLOCK_RECORD
  5
1A
330
1
100
AcDbSymbolTableRecord
100
AcDbBlockTableRecord
  2
*Paper_Space
340
1D
  0
BLOCK_RECORD
  5
1F94
330
1
100
AcDbSymbolTableRecord
100
AcDbBlockTableRecord
  2
A$C446F37ED
340
0
  0
ENDTAB
  0
ENDSEC
  0
SECTION
  2
BLOCKS
  0
BLOCK
  5
31
330
1E
100
AcDbEntity
  8
0
100
AcDbBlockBegin
  2
*Model_Space
 70
     0
 10
0.0
 20
0.0
 30
0.0
  3
*Model_Space
  1

  0
ENDBLK
  5
32
330
1E
100
AcDbEntity
  8
0
100
AcDbBlockEnd
  0
BLOCK
  5
2F
330
1A
100
AcDbEntity
 67
     1
  8
0
100
AcDbBlockBegin
  2
*Paper_Space
 70
     0
 10
0.0
 20
0.0
 30
0.0
  3
*Paper_Space
  1

  0
ENDBLK
  5
30
330
1A
100
AcDbEntity
 67
     1
  8
0
100
AcDbBlockEnd
  0
BLOCK
  5
1F9A
330
1F94
100
AcDbEntity
  8
0
100
AcDbBlockBegin
  2
A$C446F37ED
 70
     0
 10
0.0
 20
0.0
 30
0.0
  3
A$C446F37ED
  1

  0
LWPOLYLINE
  5
1F95
330
1F94
100
AcDbEntity
  8
SC
100
AcDbPolyline
 90
        2
 70
     0
 43
0.0
 10
0.9754381615093734
 20
2.301851112580862
 10
15.01207333970421
 20
35.50297922665397
1001
ACAD
1000
DSTYLE
1002
{
1070
   147
1040
0.09
1070
    40
1040
10.0
1070
    41
1040
0.25
1070
    42
1040
0.1
1070
    43
1040
0.6
1070
    44
1040
0.2
1070
    73
1070
     0
1070
    74
1070
     0
1070
    77
1070
     0
1070
   140
1040
0.3
1070
   172
1070
     1
1070
   179
1070
     1
1070
   271
1070
     0
1070
   272
1070
     0
1070
   279
1070
     2
1070
   340
1005
22
1002
}
  0
LINE
  5
1F96
330
1F94
100
AcDbEntity
  8
SC
100
AcDbLine
 10
15.01207333970421
 20
35.50297922665397
 30
0.0
 11
48.36505828953614
 21
35.50297922665397
 31
0.0
  0
TEXT
  5
1F97
330
1F94
100
AcDbEntity
  8
MO
100
AcDbText
 10
17.8789998067366
 20
35.92797951483391
 30
0.0
 40
3.599999999999999
  1
ターミナル端子
  7
0
100
AcDbText
  0
TEXT
  5
1F98
330
1F94
100
AcDbEntity
  8
MO
100
AcDbText
 10
37.15244488778728
 20
31.01337935395887
 30
0.0
 40
3.599999999999999
  1
（D）
  7
0
100
AcDbText
  0
SOLID
  5
1F99
330
1F94
100
AcDbEntity
  8
SC
100
AcDbTrace
 10
1.359080059903703
 20
2.139278036988685
 30
0.0
 11
-0.000000292043751
 21
-0.0000002777850909
 31
0.0
 12
0.5917962631150431
 22
2.464424188173069
 32
0.0
 13
0.5917962631150431
 23
2.464424188173069
 33
0.0
1001
ACAD
1000
DSTYLE
1002
{
1070
   147
1040
0.09
1070
    40
1040
10.0
1070
    41
1040
0.25
1070
    42
1040
0.1
1070
    43
1040
0.6
1070
    44
1040
0.2
1070
    73
1070
     0
1070
    74
1070
     0
1070
    77
1070
     0
1070
   140
1040
0.3
1070
   172
1070
     1
1070
   179
1070
     1
1070
   271
1070
     0
1070
   272
1070
     0
1070
   279
1070
     2
1070
   340
1005
22
1002
}
  0
ENDBLK
  5
1F9B
330
1F94
100
AcDbEntity
  8
0
100
AcDbBlockEnd
  0
ENDSEC
  0
SECTION
  2
ENTITIES
  0
TEXT
  5
61
330
1E
100
AcDbEntity
  8
MO
100
AcDbText
 10
328.5
 20
53.5
 30
0.0
 40
4.0
  1

  7
0
 72
     1
 11
328.5
 21
53.5
 31
0.0
100
AcDbText
  0
TEXT
  5
62
330
1E
100
AcDbEntity
  8
MO
100
AcDbText
 10
328.5
 20
47.0
 30
0.0
 40
4.0
  1

  7
0
 72
     1
 11
328.5
 21
47.0
 31
0.0
100
AcDbText
  0
TEXT
  5
63
330
1E
100
AcDbEntity
  8
MO
100
AcDbText
 10
328.5
 20
34.0
 30
0.0
 40
4.0
  1

  7
0
 72
     1
 11
328.5
 21
34.0
 31
0.0
100
AcDbText
  0
TEXT
  5
6E
330
1E
100
AcDbEntity
  8
MO
100
AcDbText
 10
328.204
 20
39.802
 30
0.0
 40
4.0
  1

  7
0
 72
     1
 11
328.204
 21
39.802
 31
0.0
100
AcDbText
  0
TEXT
  5
89
330
1E
100
AcDbEntity
  8
MO
100
AcDbText
 10
82.20200000000009
 20
51.07199999999998
 30
0.0
 40
3.0
  1

  7
0
100
AcDbText
  0
TEXT
  5
8B
330
1E
100
AcDbEntity
  8
MO
100
AcDbText
 10
110.859
 20
51.07199999999998
 30
0.0
 40
3.0
  1

  7
0
100
AcDbText
  0
TEXT
  5
8D
330
1E
100
AcDbEntity
  8
MO
100
AcDbText
 10
360.261
 20
19.91099999999999
 30
0.0
 40
7.0
  1

  7
0
 72
     4
 11
360.261
 21
19.91099999999999
 31
0.0
100
AcDbText
  0
TEXT
  5
91
330
1E
100
AcDbEntity
  8
MO
370
    40
100
AcDbText
 10
194.5322222577219
 20
248.2942159269637
 30
0.0
 40
10.8
  1
2ピース両端子型バンドヒーター
  7
0
100
AcDbText
  0
TEXT
  5
AC
330
1E
100
AcDbEntity
  8
MO
100
AcDbText
 10
103.1910000000001
 20
51.07199999999996
 30
0.0
 40
3.0
  1

  7
0
100
AcDbText
  0
TEXT
  5
1399
330
1E
100
AcDbEntity
  8
MO
100
AcDbText
 10
75.70200000000008
 20
51.07199999999998
 30
0.0
 40
3.0
  1

  7
0
100
AcDbText
  0
TEXT
  5
139C
330
1E
100
AcDbEntity
  8
MO
100
AcDbText
 10
110.859
 20
63.07199999999996
 30
0.0
 40
3.0
  1

  7
0
100
AcDbText
  0
TEXT
  5
139F
330
1E
100
AcDbEntity
  8
SC
100
AcDbText
 10
135.033
 20
64.98099999999995
 30
0.0
 40
2.0
  1

  7
0
100
AcDbText
  0
TEXT
  5
13A0
330
1E
100
AcDbEntity
  8
MO
100
AcDbText
 10
110.859
 20
45.07200000000001
 30
0.0
 40
3.0
  1

  7
0
100
AcDbText
  0
TEXT
  5
148E
330
1E
100
AcDbEntity
  8
MO
100
AcDbText
 10
353.0082641755531
 20
10.917
 30
0.0
 40
5.0
  1
株）
  7
0
 72
     1
 11
357.0082641755532
 21
10.917
 31
0.0
100
AcDbText
  0
TEXT
  5
1491
330
1E
100
AcDbEntity
  8
SC
100
AcDbText
 10
103.7564
 20
117.6597333333333
 30
0.0
 40
0.25
  1

100
AcDbText
  0
TEXT
  5
1492
330
1E
100
AcDbEntity
  8
MO
100
AcDbText
 10
364.2811320877766
 20
10.917
 30
0.0
 40
6.0
  1
愛西電熱
  7
0
 72
     1
 11
377.8811320877766
 21
10.917
 31
0.0
100
AcDbText
  0
MTEXT
  5
1758
330
1E
100
AcDbEntity
  8
SC
100
AcDbMText
 10
317.637
 20
21.871
 30
0.0
 40
2.5
 41
0.0
 71
     1
 72
     5
  1

  7
0
 73
     1
 44
1.0
1001
ACAD
1000
MTEXTBEGIN
1070
    73
1070
     1
1070
    44
1040
1.0
1070
    74
1070
     0
1000
MTEXTEND
  0
MTEXT
  5
178F
330
1E
100
AcDbEntity
  8
SC
100
AcDbMText
 10
220.1774508739589
 20
61.30926792682226
 30
0.0
 40
5.0
 41
0.0
 71
     1
 72
     5
  1
加工穴、その他変更部がありましたら図面に書き込んで御利用下さい
  7
0
 73
     1
 44
1.0
1001
ACAD
1000
MTEXTBEGIN
1070
    73
1070
     1
1070
    44
1040
1.0
1070
    74
1070
     0
1000
MTEXTEND
  0
LINE
  5
17DC
330
1E
100
AcDbEntity
  8
0
100
AcDbLine
 10
14.99999999999995
 20
30.70499999999999
 30
0.0
 11
14.99999999999995
 21
50.70499999999999
 31
0.0
  0
LINE
  5
17DE
330
1E
100
AcDbEntity
  8
0
100
AcDbLine
 10
24.99999999999994
 20
50.70499999999999
 30
0.0
 11
24.99999999999994
 21
30.705
 31
0.0
  0
LINE
  5
1806
330
1E
100
AcDbEntity
  8
0
100
AcDbLine
 10
14.99999999999995
 20
50.70499999999999
 30
0.0
 11
49.99999999999994
 21
50.70499999999999
 31
0.0
  0
LINE
  5
1807
330
1E
100
AcDbEntity
  8
0
100
AcDbLine
 10
14.99999999999995
 20
40.70499999999999
 30
0.0
 11
49.99999999999994
 21
40.70499999999999
 31
0.0
  0
LINE
  5
1808
330
1E
100
AcDbEntity
  8
0
100
AcDbLine
 10
14.99999999999995
 20
30.70499999999999
 30
0.0
 11
49.99999999999994
 21
30.70499999999999
 31
0.0
  0
LINE
  5
180A
330
1E
100
AcDbEntity
  8
0
100
AcDbLine
 10
159.9999999999999
 20
50.70499999999999
 30
0.0
 11
281.0
 21
50.70499999999999
 31
0.0
  0
TEXT
  5
1814
330
1E
100
AcDbEntity
  8
MO
100
AcDbText
 10
19.18000058282744
 20
43.87999982484505
 30
0.0
 40
3.499999999999999
  1
A
  7
0
100
AcDbText
  0
TEXT
  5
181A
330
1E
100
AcDbEntity
  8
MO
100
AcDbText
 10
91.28012879570206
 20
43.7553613470516
 30
0.0
 40
3.499999999999999
  1
B
  7
0
100
AcDbText
  0
TEXT
  5
1822
330
1E
100
AcDbEntity
  8
MO
100
AcDbText
 10
32.9032818353157
 20
43.07893657328403
 30
0.0
 40
4.375
  1
内径
  7
0
 72
     1
 11
37.7157818353157
 21
43.07893657328403
 31
0.0
100
AcDbText
  0
TEXT
  5
1829
330
1E
100
AcDbEntity
  8
MO
100
AcDbText
 10
107.5739879080579
 20
43.61824969380626
 30
0.0
 40
4.375
  1
巾
  7
0
 72
     1
 11
109.6156545747246
 21
43.61824969380626
 31
0.0
100
AcDbText
  0
TEXT
  5
1844
330
1E
100
AcDbEntity
  8
MO
100
AcDbText
 10
18.85312879570205
 20
33.67336134705161
 30
0.0
 40
3.499999999999999
  1
C
  7
0
100
AcDbText
  0
TEXT
  5
1845
330
1E
100
AcDbEntity
  8
MO
100
AcDbText
 10
32.25766860327968
 20
33.50686474409736
 30
0.0
 40
4.375
  1
材質
  7
0
 72
     1
 11
36.92433526994634
 21
33.50686474409736
 31
0.0
100
AcDbText
  0
LINE
  5
1847
330
1E
100
AcDbEntity
  8
0
100
AcDbLine
 10
49.99999999999994
 20
50.70499999999999
 30
0.0
 11
49.99999999999994
 21
30.70499999999999
 31
0.0
  0
TEXT
  5
1855
330
1E
100
AcDbEntity
  8
MO
100
AcDbText
 10
91.35312879570202
 20
33.6733613470516
 30
0.0
 40
3.499999999999999
  1
D
  7
0
100
AcDbText
  0
TEXT
  5
1856
330
1E
100
AcDbEntity
  8
MO
100
AcDbText
 10
226.088412769654
 20
33.66682550160349
 30
0.0
 40
4.375
  1
数量
  7
0
 72
     1
 11
230.7550794363206
 21
33.66682550160349
 31
0.0
100
AcDbText
  0
LINE
  5
1870
330
1E
100
AcDbEntity
  8
0
100
AcDbLine
 10
14.99999999999994
 20
30.705
 30
0.0
 11
159.9999999999999
 21
30.70499999999999
 31
0.0
  0
LINE
  5
1871
330
1E
100
AcDbEntity
  8
0
100
AcDbLine
 10
87.49999999999992
 20
50.70499999999999
 30
0.0
 11
87.49999999999992
 21
30.70499999999999
 31
0.0
  0
LINE
  5
1873
330
1E
100
AcDbEntity
  8
0
100
AcDbLine
 10
49.99999999999994
 20
50.70499999999999
 30
0.0
 11
159.9999999999999
 21
50.70499999999999
 31
0.0
  0
LINE
  5
1874
330
1E
100
AcDbEntity
  8
0
100
AcDbLine
 10
49.99999999999994
 20
40.70499999999999
 30
0.0
 11
87.49999999999992
 21
40.70499999999999
 31
0.0
  0
LINE
  5
1875
330
1E
100
AcDbEntity
  8
0
100
AcDbLine
 10
49.99999999999994
 20
30.70499999999999
 30
0.0
 11
159.9999999999999
 21
30.70499999999999
 31
0.0
  0
LINE
  5
1884
330
1E
100
AcDbEntity
  8
0
100
AcDbLine
 10
122.4999999999999
 20
40.705
 30
0.0
 11
159.9999999999999
 21
40.705
 31
0.0
  0
LINE
  5
1888
330
1E
100
AcDbEntity
  8
0
100
AcDbLine
 10
14.99999999999994
 20
30.705
 30
0.0
 11
159.9999999999999
 21
30.70499999999999
 31
0.0
  0
LINE
  5
1889
330
1E
100
AcDbEntity
  8
0
100
AcDbLine
 10
17.99999999999994
 20
20.705
 30
0.0
 11
283.2259999999999
 21
20.70499999999999
 31
0.0
  0
LINE
  5
188A
330
1E
100
AcDbEntity
  8
0
100
AcDbLine
 10
17.99999999999994
 20
10.705
 30
0.0
 11
283.2259999999999
 21
10.70499999999998
 31
0.0
  0
TEXT
  5
1892
330
1E
100
AcDbEntity
  8
MO
100
AcDbText
 10
18.0825030365616
 20
28.37468907764135
 30
0.0
 40
2.799999999999999
  1

  7
0
100
AcDbText
  0
TEXT
  5
1893
330
1E
100
AcDbEntity
  8
MO
100
AcDbText
 10
18.31122710757998
 20
21.78303665633006
 30
0.0
 40
3.5
  1
その他詳細：
  7
0
 72
     1
 11
29.86122710757998
 21
21.78303665633006
 31
0.0
100
AcDbText
  0
LINE
  5
18A2
330
1E
100
AcDbEntity
  8
0
100
AcDbLine
 10
87.49999999999992
 20
40.70499999999999
 30
0.0
 11
159.9999999999999
 21
40.70499999999999
 31
0.0
  0
TEXT
  5
18A3
330
1E
100
AcDbEntity
  8
MO
100
AcDbText
 10
226.322471877816
 20
43.55161148403567
 30
0.0
 40
4.375
  1
容量
  7
0
 72
     1
 11
230.9891385444827
 21
43.55161148403567
 31
0.0
100
AcDbText
  0
TEXT
  5
18A5
330
1E
100
AcDbEntity
  8
MO
100
AcDbText
 10
166.1966333931626
 20
43.47752605931685
 30
0.0
 40
4.375
  1
電圧
  7
0
 72
     1
 11
170.8633000598292
 21
43.47752605931685
 31
0.0
100
AcDbText
  0
LINE
  5
18A9
330
1E
100
AcDbEntity
  8
0
100
AcDbLine
 10
159.9999999999999
 20
50.70499999999999
 30
0.0
 11
159.9999999999999
 21
30.70499999999999
 31
0.0
  0
LINE
  5
18AA
330
1E
100
AcDbEntity
  8
0
100
AcDbLine
 10
97.49999999999994
 20
50.70499999999999
 30
0.0
 11
97.49999999999994
 21
30.70499999999999
 31
0.0
  0
LINE
  5
18AB
330
1E
100
AcDbEntity
  8
0
100
AcDbLine
 10
122.4999999999999
 20
50.70499999999999
 30
0.0
 11
122.4999999999999
 21
30.70499999999999
 31
0.0
  0
TEXT
  5
18B4
330
1E
100
AcDbEntity
  8
MO
100
AcDbText
 10
334.7498393399925
 20
3.380574230302642
 30
0.0
 40
3.5
  1
AISEI  DENNETSU CO., LTD
  7
0
100
AcDbText
  0
TEXT
  5
18BD
330
1E
100
AcDbEntity
  8
MO
100
AcDbText
 10
395.1844532591924
 20
11.06163477656134
 30
0.0
 40
5.0
  1
行
  7
0
 72
     1
 11
397.5177865925257
 21
11.06163477656134
 31
0.0
100
AcDbText
  0
TEXT
  5
18C6
330
1E
100
AcDbEntity
  8
MO
100
AcDbText
 10
80.18549947051658
 20
43.19699993280605
 30
0.0
 40
4.375
  1
φ
  7
0
 72
     1
 11
82.37299947051658
 21
43.19699993280605
 31
0.0
100
AcDbText
  0
TEXT
  5
18CC
330
1E
100
AcDbEntity
  8
MO
100
AcDbText
 10
150.2635240194453
 20
42.82492724811003
 30
0.0
 40
3.0625
  1
mm
  7
0
 72
     1
 11
154.055190686112
 21
42.82492724811003
 31
0.0
100
AcDbText
  0
TEXT
  5
18D2
330
1E
100
AcDbEntity
  8
MO
100
AcDbText
 10
212.9983333333334
 20
42.769
 30
0.0
 40
4.375
  1
V
  7
0
 72
     1
 11
214.665
 21
42.769
 31
0.0
100
AcDbText
  0
TEXT
  5
18D8
330
1E
100
AcDbEntity
  8
MO
100
AcDbText
 10
267.9991177097082
 20
44.28327818328745
 30
0.0
 40
3.0625
  1
W×2P
  7
0
 72
     1
 11
274.0657843763748
 21
44.28327818328745
 31
0.0
100
AcDbText
  0
TEXT
  5
18DE
330
1E
100
AcDbEntity
  8
MO
100
AcDbText
 10
269.9618249953228
 20
32.63244616812445
 30
0.0
 40
4.375
  1
set
  7
0
 72
     1
 11
274.4409916619895
 21
32.63244616812445
 31
0.0
100
AcDbText
  0
TEXT
  5
18E4
330
1E
100
AcDbEntity
  8
MO
100
AcDbText
 10
53.7897995764133
 20
33.91959994624484
 30
0.0
 40
3.5
  1
SUS・ボンデ鋼鈑
  7
0
 72
     1
 11
68.9897995764133
 21
33.91959994624484
 31
0.0
100
AcDbText
  0
TEXT
  5
18EB
330
1E
100
AcDbEntity
  8
MO
100
AcDbText
 10
17.62914196000259
 20
55.01909017515878
 30
0.0
 40
4.550000000000001
  1
※　下記空欄に記入し、FAXしてください
  7
0
100
AcDbText
  0
LINE
  5
18ED
330
1E
100
AcDbEntity
  8
0
100
AcDbLine
 10
3.193615971125439
 20
267.713
 30
0.0
 11
128.2526159711254
 21
267.713
 31
0.0
  0
LINE
  5
18EE
330
1E
100
AcDbEntity
  8
0
100
AcDbLine
 10
3.193615971125439
 20
255.713
 30
0.0
 11
128.2526159711254
 21
255.7129999999999
 31
0.0
  0
LINE
  5
18EF
330
1E
100
AcDbEntity
  8
0
100
AcDbLine
 10
3.193615971125424
 20
243.713
 30
0.0
 11
128.2526159711254
 21
243.7129999999999
 31
0.0
  0
LINE
  5
18F0
330
1E
100
AcDbEntity
  8
0
100
AcDbLine
 10
3.193615971125424
 20
231.713
 30
0.0
 11
128.2526159711254
 21
231.7129999999999
 31
0.0
  0
TEXT
  5
18F7
330
1E
100
AcDbEntity
  8
MO
100
AcDbText
 10
5.047000000000002
 20
269.7195108252091
 30
0.0
 40
4.375
  1
貴社名：
  7
0
 72
     1
 11
14.08866666666667
 21
269.7195108252091
 31
0.0
100
AcDbText
  0
TEXT
  5
18FF
330
1E
100
AcDbEntity
  8
MO
100
AcDbText
 10
4.762445293775542
 20
259.6404968976157
 30
0.0
 40
4.375
  1
部署・担当者名：
  7
0
 72
     1
 11
24.30411196044222
 21
259.6404968976157
 31
0.0
100
AcDbText
  0
TEXT
  5
190B
330
1E
100
AcDbEntity
  8
MO
100
AcDbText
 10
4.244409610399635
 20
235.1743512486338
 30
0.0
 40
4.375
  1
御連絡先 FAX：
  7
0
 72
     1
 11
23.4735762770663
 21
235.1743512486338
 31
0.0
100
AcDbText
  0
TEXT
  5
1918
330
1E
100
AcDbEntity
  8
MO
100
AcDbText
 10
4.271947869785471
 20
247.7453335828736
 30
0.0
 40
4.375
  1
御連絡先 TEL：
  7
0
 72
     1
 11
22.87611453645213
 21
247.7453335828736
 31
0.0
100
AcDbText
  0
LINE
  5
1923
330
1E
100
AcDbEntity
  8
0
370
    40
100
AcDbLine
 10
315.0881625155811
 20
37.35735115744029
 30
0.0
 11
393.0881625155811
 21
37.35735115744029
 31
0.0
  0
LINE
  5
1924
330
1E
100
AcDbEntity
  8
0
370
    40
100
AcDbLine
 10
315.0881625155811
 20
34.7573511574403
 30
0.0
 11
399.5881625155811
 21
34.7573511574403
 31
0.0
  0
LINE
  5
1925
330
1E
100
AcDbEntity
  8
0
370
    40
100
AcDbLine
 10
393.0881625155811
 20
37.35735115744029
 30
0.0
 11
393.0881625155811
 21
39.95735115744029
 31
0.0
  0
LINE
  5
1926
330
1E
100
AcDbEntity
  8
0
370
    40
100
AcDbLine
 10
393.0881625155811
 20
39.95735115744029
 30
0.0
 11
399.5881625155811
 21
34.7573511574403
 31
0.0
  0
LINE
  5
1927
330
1E
100
AcDbEntity
  8
0
370
    40
100
AcDbLine
 10
315.0881625155811
 20
37.35735115744029
 30
0.0
 11
315.0881625155811
 21
34.7573511574403
 31
0.0
  0
TEXT
  5
192E
330
1E
100
AcDbEntity
  8
MO
370
    40
100
AcDbText
 10
324.6798300677355
 20
38.84484239326316
 30
0.0
 40
7.800000000000001
  1
FAX送信方向
  7
0
 72
     1
 11
353.2426872105926
 21
38.84484239326316
 31
0.0
100
AcDbText
  0
TEXT
  5
1943
330
1E
100
AcDbEntity
  8
0
370
    53
100
AcDbText
 10
86.07465571428523
 20
284.1842971226886
 30
0.0
 40
10.0
  1
愛西電熱　見積依頼書・注文書　フォーム
  7
0
100
AcDbText
  0
TEXT
  5
195E
330
1E
100
AcDbEntity
  8
MO
370
    40
100
AcDbText
 10
313.1463329590498
 20
24.83965109775832
 30
0.0
 40
7.800000000000001
  1
0568-25-2241
  7
0
 72
     1
 11
357.1606186733355
 21
24.83965109775832
 31
0.0
100
AcDbText
  0
LINE
  5
19C2
330
1E
100
AcDbEntity
  8
SC
370
    40
100
AcDbLine
 10
195.036
 20
245.664
 30
0.0
 11
385.6790000000001
 21
245.664
 31
0.0
  0
TEXT
  5
19F0
330
1E
100
AcDbEntity
  8
MO
100
AcDbText
 10
104.7576686032796
 20
33.50686474409736
 30
0.0
 40
4.375
  1
端子
  7
0
 72
     1
 11
109.4243352699463
 21
33.50686474409736
 31
0.0
100
AcDbText
  0
TEXT
  5
19F7
330
1E
100
AcDbEntity
  8
MO
100
AcDbText
 10
128.35646624308
 20
33.91959994624483
 30
0.0
 40
3.5
  1
M4　・　M5
  7
0
 72
     1
 11
141.4897995764133
 21
33.91959994624483
 31
0.0
100
AcDbText
  0
LINE
  5
19F9
330
1E
100
AcDbEntity
  8
0
100
AcDbLine
 10
160.9999999999999
 20
50.70499999999999
 30
0.0
 11
160.9999999999999
 21
30.70499999999999
 31
0.0
  0
LINE
  5
1A00
330
1E
100
AcDbEntity
  8
0
100
AcDbLine
 10
159.9999999999999
 20
40.705
 30
0.0
 11
280.9999999999999
 21
40.70499999999983
 31
0.0
  0
LINE
  5
1A06
330
1E
100
AcDbEntity
  8
0
100
AcDbLine
 10
159.9999999999999
 20
30.70499999999999
 30
0.0
 11
280.9999999999999
 21
30.70499999999997
 31
0.0
  0
LINE
  5
1A08
330
1E
100
AcDbEntity
  8
0
100
AcDbLine
 10
180.9999999999999
 20
50.70499999999999
 30
0.0
 11
180.9999999999999
 21
30.70499999999999
 31
0.0
  0
LINE
  5
1A09
330
1E
100
AcDbEntity
  8
0
100
AcDbLine
 10
220.9999999999999
 20
50.70499999999999
 30
0.0
 11
220.9999999999999
 21
30.70499999999998
 31
0.0
  0
LINE
  5
1A12
330
1E
100
AcDbEntity
  8
0
100
AcDbLine
 10
281.0
 20
50.70499999999999
 30
0.0
 11
280.9999999999999
 21
30.70499999999997
 31
0.0
  0
LINE
  5
1A13
330
1E
100
AcDbEntity
  8
0
100
AcDbLine
 10
241.0
 20
50.70499999999999
 30
0.0
 11
241.0
 21
30.70499999999999
 31
0.0
  0
LINE
  5
1A14
330
1E
100
AcDbEntity
  8
0
100
AcDbLine
 10
220.9999999999999
 20
50.70499999999999
 30
0.0
 11
220.9999999999999
 21
30.70499999999999
 31
0.0
  0
TEXT
  5
1A20
330
1E
100
AcDbEntity
  8
MO
100
AcDbText
 10
163.5716333931626
 20
33.47752605931685
 30
0.0
 40
4.375
  1
穴加工
  7
0
 72
     1
 11
170.8633000598292
 21
33.47752605931685
 31
0.0
100
AcDbText
  0
TEXT
  5
1A26
330
1E
100
AcDbEntity
  8
MO
100
AcDbText
 10
188.5296817384609
 20
33.47752605931685
 30
0.0
 40
4.375
  1
有　・　無
  7
0
 72
     1
 11
201.0713484051275
 21
33.47752605931685
 31
0.0
100
AcDbText
  0
TEXT
  5
1C7B
330
1E
100
AcDbEntity
  8
MO
100
AcDbText
 10
132.1833699794754
 20
213.8171289549777
 30
0.0
 40
6.0
  1
B
  7
0
100
AcDbText
  0
LINE
  5
1E0C
330
1E
100
AcDbEntity
  8
HO
100
AcDbLine
 10
217.2249995966601
 20
135.8169997496477
 30
0.0
 11
347.3713666370867
 21
135.8169997496476
 31
0.0
  0
ARC
  5
1E0F
330
1E
100
AcDbEntity
  8
SA
100
AcDbCircle
 10
278.7249995966602
 20
135.8169997496477
 30
0.0
 40
50.0
100
AcDbArc
 50
184.9999999999998
 51
355.0000000000002
  0
LINE
  5
1E10
330
1E
100
AcDbEntity
  8
HO
100
AcDbLine
 10
236.4388316612943
 20
120.4260932999926
 30
0.0
 11
205.2410366512021
 21
109.0710245415803
 31
0.0
  0
LINE
  5
1E11
330
1E
100
AcDbEntity
  8
SC
100
AcDbLine
 10
223.2382255189766
 20
123.0707099972488
 30
0.0
 11
228.026507525536
 21
109.9150133062461
 31
0.0
  0
LINE
  5
1E12
330
1E
100
AcDbEntity
  8
SC
100
AcDbLine
 10
222.7683792085837
 20
122.899699925586
 30
0.0
 11
227.556661215143
 21
109.7440032345833
 31
0.0
  0
LINE
  5
1E13
330
1E
100
AcDbEntity
  8
SC
100
AcDbLine
 10
222.2985328981907
 20
122.7286898539231
 30
0.0
 11
227.0868149047501
 21
109.5729931629204
 31
0.0
  0
LINE
  5
1E14
330
1E
100
AcDbEntity
  8
SB
100
AcDbLine
 10
221.8286865877978
 20
122.5576797822603
 30
0.0
 11
226.6169685943572
 21
109.4019830912575
 31
0.0
  0
LINE
  5
1E15
330
1E
100
AcDbEntity
  8
SB
100
AcDbLine
 10
223.7080718293696
 20
123.2417200689116
 30
0.0
 11
228.496353835929
 21
110.0860233779089
 31
0.0
  0
LINE
  5
1E16
330
1E
100
AcDbEntity
  8
SB
100
AcDbLine
 10
228.496353835929
 20
110.0860233779089
 30
0.0
 11
226.6169685943572
 21
109.4019830912575
 31
0.0
  0
LINE
  5
1E17
330
1E
100
AcDbEntity
  8
SB
100
AcDbLine
 10
219.865349302442
 20
116.8414479199289
 30
0.0
 11
222.6844271647997
 21
117.867508349906
 31
0.0
  0
LINE
  5
1E18
330
1E
100
AcDbEntity
  8
SB
100
AcDbLine
 10
219.0787029727931
 20
119.0027409477366
 30
0.0
 11
221.8977808351507
 21
120.0288013777135
 31
0.0
  0
LINE
  5
1E19
330
1E
100
AcDbEntity
  8
SB
100
AcDbLine
 10
221.4386419617401
 20
112.5188618643137
 30
0.0
 11
224.2577198240978
 21
113.5449222942908
 31
0.0
  0
LINE
  5
1E1A
330
1E
100
AcDbEntity
  8
SB
100
AcDbLine
 10
222.2252882913892
 20
110.3575688365062
 30
0.0
 11
225.0443661537468
 21
111.3836292664832
 31
0.0
  0
LINE
  5
1E1B
330
1E
100
AcDbEntity
  8
SB
100
AcDbLine
 10
221.5899627061576
 20
120.8745247364208
 30
0.0
 11
225.3521842827399
 21
110.5379059077759
 31
0.0
  0
LINE
  5
1E1C
330
1E
100
AcDbEntity
  8
SB
100
AcDbLine
 10
226.1039383793686
 20
110.8115220224364
 30
0.0
 11
225.3521842827399
 21
110.5379059077759
 31
0.0
  0
LINE
  5
1E1D
330
1E
100
AcDbEntity
  8
SB
100
AcDbLine
 10
222.3417168027863
 20
121.1481408510814
 30
0.0
 11
221.5899627061575
 21
120.8745247364208
 31
0.0
  0
LINE
  5
1E1E
330
1E
100
AcDbEntity
  8
SB
100
AcDbLine
 10
223.7080718293696
 20
123.2417200689116
 30
0.0
 11
221.8286865877978
 21
122.5576797822603
 31
0.0
  0
ARC
  5
1E1F
330
1E
100
AcDbEntity
  8
SB
100
AcDbCircle
 10
218.5862380207303
 20
113.9282806103772
 30
0.0
 40
3.901666666666711
100
AcDbArc
 50
163.8790561276024
 51
236.1209438723978
  0
LINE
  5
1E20
330
1E
100
AcDbEntity
  8
SB
100
AcDbLine
 10
216.5626071849532
 20
119.0447169696286
 30
0.0
 11
220.3248287615354
 21
108.7080981409837
 31
0.0
  0
LINE
  5
1E21
330
1E
100
AcDbEntity
  8
SB
100
AcDbLine
 10
217.3143612815817
 20
119.3183330842891
 30
0.0
 11
221.0765828581642
 21
108.9817142556442
 31
0.0
  0
ARC
  5
1E22
330
1E
100
AcDbEntity
  8
SB
100
AcDbCircle
 10
223.6135935419347
 20
115.7580883771695
 30
0.0
 40
3.901666666666711
100
AcDbArc
 50
163.8790561276024
 51
236.1209438723978
  0
LINE
  5
1E23
330
1E
100
AcDbEntity
  8
SB
100
AcDbLine
 10
218.0661153782104
 20
119.5919491989496
 30
0.0
 11
221.8283369547929
 21
109.2553303703046
 31
0.0
  0
LINE
  5
1E24
330
1E
100
AcDbEntity
  8
SB
100
AcDbLine
 10
216.4112864405357
 20
110.6890540975215
 30
0.0
 11
219.2303643028933
 21
111.7151145274985
 31
0.0
  0
LINE
  5
1E25
330
1E
100
AcDbEntity
  8
SB
100
AcDbLine
 10
217.1979327701848
 20
108.527761069714
 30
0.0
 11
220.0170106325424
 21
109.553821499691
 31
0.0
  0
LINE
  5
1E26
330
1E
100
AcDbEntity
  8
SB
100
AcDbLine
 10
221.8283369547929
 20
109.2553303703047
 30
0.0
 11
220.3248287615354
 21
108.7080981409837
 31
0.0
  0
LINE
  5
1E27
330
1E
100
AcDbEntity
  8
SB
100
AcDbLine
 10
221.1271956609751
 20
111.1817002429157
 30
0.0
 11
222.2252882913891
 21
110.3575688365062
 31
0.0
  0
ARC
  5
1E28
330
1E
100
AcDbEntity
  8
SB
100
AcDbCircle
 10
222.3080760544294
 20
111.6115055563616
 30
0.0
 40
1.256666666666669
100
AcDbArc
 50
133.7773160792555
 51
200.0000000000001
  0
LINE
  5
1E29
330
1E
100
AcDbEntity
  8
SB
100
AcDbLine
 10
216.0998401397707
 20
109.3518924761234
 30
0.0
 11
217.1979327701846
 21
108.527761069714
 31
0.0
  0
ARC
  5
1E2A
330
1E
100
AcDbEntity
  8
SB
100
AcDbCircle
 10
217.280720533225
 20
109.7816977895694
 30
0.0
 40
1.256666666666669
100
AcDbArc
 50
133.7773160792555
 51
200.0000000000001
  0
LINE
  5
1E2B
330
1E
100
AcDbEntity
  8
SB
100
AcDbLine
 10
214.8379937812376
 20
115.0116401531367
 30
0.0
 11
217.6570716435953
 21
116.0377005831137
 31
0.0
  0
LINE
  5
1E2C
330
1E
100
AcDbEntity
  8
SB
100
AcDbLine
 10
214.0513474515885
 20
117.1729331809443
 30
0.0
 11
216.8704253139462
 21
118.1989936109213
 31
0.0
  0
LINE
  5
1E2D
330
1E
100
AcDbEntity
  8
SB
100
AcDbLine
 10
218.0661153782105
 20
119.5919491989497
 30
0.0
 11
216.5626071849532
 21
119.0447169696286
 31
0.0
  0
LINE
  5
1E2E
330
1E
100
AcDbEntity
  8
SB
100
AcDbLine
 10
218.767256672028
 20
117.6655793263385
 30
0.0
 11
219.0787029727929
 21
119.0027409477365
 31
0.0
  0
ARC
  5
1E2F
330
1E
100
AcDbEntity
  8
SB
100
AcDbCircle
 10
219.9481370654823
 20
118.0953846397844
 30
0.0
 40
1.256666666666669
100
AcDbArc
 50
200.0000000000001
 51
266.2226839207442
  0
LINE
  5
1E30
330
1E
100
AcDbEntity
  8
SB
100
AcDbLine
 10
213.7399011508236
 20
115.8357715595462
 30
0.0
 11
214.0513474515885
 21
117.1729331809443
 31
0.0
  0
ARC
  5
1E31
330
1E
100
AcDbEntity
  8
SB
100
AcDbCircle
 10
214.9207815442779
 20
116.2655768729922
 30
0.0
 40
1.256666666666669
100
AcDbArc
 50
200.0000000000001
 51
266.2226839207442
  0
LINE
  5
1E32
330
1E
100
AcDbEntity
  8
SC
100
AcDbLine
 10
209.7892188624069
 20
113.3868719176678
 30
0.0
 11
211.4993195790353
 21
108.6884088137382
 31
0.0
  0
LINE
  5
1E33
330
1E
100
AcDbEntity
  8
SB
100
AcDbLine
 10
209.3409645043117
 20
112.4255873445841
 30
0.0
 11
210.5380350059516
 21
109.1366631718334
 31
0.0
  0
LINE
  5
1E34
330
1E
100
AcDbEntity
  8
SC
100
AcDbLine
 10
210.5380350059515
 20
109.1366631718334
 30
0.0
 11
215.5184058961171
 21
110.9493699314596
 31
0.0
  0
LINE
  5
1E35
330
1E
100
AcDbEntity
  8
SB
100
AcDbLine
 10
211.4993195790353
 20
108.6884088137382
 30
0.0
 11
215.7749210036113
 21
110.2446004658701
 31
0.0
  0
LINE
  5
1E36
330
1E
100
AcDbEntity
  8
SB
100
AcDbLine
 10
210.5380350059516
 20
109.1366631718334
 30
0.0
 11
211.4993195790353
 21
108.6884088137382
 31
0.0
  0
LINE
  5
1E37
330
1E
100
AcDbEntity
  8
SC
100
AcDbLine
 10
209.3409645043117
 20
112.4255873445841
 30
0.0
 11
214.3213353944772
 21
114.2382941042102
 31
0.0
  0
LINE
  5
1E38
330
1E
100
AcDbEntity
  8
SB
100
AcDbLine
 10
209.7892188624069
 20
113.3868719176678
 30
0.0
 11
214.0648202869829
 21
114.9430635697997
 31
0.0
  0
LINE
  5
1E39
330
1E
100
AcDbEntity
  8
SB
100
AcDbLine
 10
209.3409645043117
 20
112.4255873445841
 30
0.0
 11
209.7892188624069
 21
113.3868719176678
 31
0.0
  0
LINE
  5
1E3A
330
1E
100
AcDbEntity
  8
SC
100
AcDbLine
 10
224.0500919726953
 20
122.3020274481257
 30
0.0
 11
225.9181370201676
 21
124.5282768445787
 31
0.0
  0
LINE
  5
1E3B
330
1E
100
AcDbEntity
  8
SC
100
AcDbLine
 10
228.1543336926033
 20
111.0257159986947
 30
0.0
 11
231.0163447488275
 21
110.5210662303965
 31
0.0
  0
LINE
  5
1E3C
330
1E
100
AcDbEntity
  8
SC
100
AcDbLine
 10
213.7399011508236
 20
115.8357715595462
 30
0.0
 11
216.0998401397707
 21
109.3518924761234
 31
0.0
  0
CIRCLE
  5
1E3D
330
1E
100
AcDbEntity
  8
SA
100
AcDbCircle
 10
278.7249995966602
 20
135.8169997496477
 30
0.0
 40
53.2
  0
LINE
  5
1E3E
330
1E
100
AcDbEntity
  8
HO
100
AcDbLine
 10
288.7249995966603
 20
183.1633667900743
 30
0.0
 11
288.7249995966603
 21
204.7633667900743
 31
0.0
  0
LINE
  5
1E3F
330
1E
100
AcDbEntity
  8
HO
100
AcDbLine
 10
268.7249995966602
 20
183.1633667900743
 30
0.0
 11
268.7249995966602
 21
204.7633667900743
 31
0.0
  0
CIRCLE
  5
1E40
330
1E
100
AcDbEntity
  8
SA
100
AcDbCircle
 10
288.7249995966602
 20
193.9633667900742
 30
0.0
 40
5.0
  0
ARC
  5
1E41
330
1E
100
AcDbEntity
  8
SA
100
AcDbCircle
 10
288.7249995966602
 20
193.9633667900742
 30
0.0
 40
5.799999999999999
100
AcDbArc
 50
321.7522513518051
 51
260.2417434046177
  0
ARC
  5
1E42
330
1E
100
AcDbEntity
  8
SA
100
AcDbCircle
 10
295.0415639758811
 20
189.3872314726741
 30
0.0
 40
2.0
100
AcDbArc
 50
144.0779527458988
 51
253.060172708276
  0
ARC
  5
1E43
330
1E
100
AcDbEntity
  8
SA
100
AcDbCircle
 10
295.0415639758811
 20
189.3872314726741
 30
0.0
 40
2.799999999999999
100
AcDbArc
 50
144.0779527458988
 51
253.060172708276
  0
ARC
  5
1E44
330
1E
100
AcDbEntity
  8
SA
100
AcDbCircle
 10
278.7249995966602
 20
135.8169997496477
 30
0.0
 40
54.0
100
AcDbArc
 50
75.10200624338303
 51
79.32807071423751
  0
ARC
  5
1E45
330
1E
100
AcDbEntity
  8
SA
100
AcDbCircle
 10
268.7249995966602
 20
193.9633667900742
 30
0.0
 40
5.799999999999999
100
AcDbArc
 50
279.7582565953815
 51
218.2477486481948
  0
CIRCLE
  5
1E46
330
1E
100
AcDbEntity
  8
SA
100
AcDbCircle
 10
268.7249995966602
 20
193.9633667900742
 30
0.0
 40
5.0
  0
ARC
  5
1E47
330
1E
100
AcDbEntity
  8
SA
100
AcDbCircle
 10
262.4084352174393
 20
189.3872314726741
 30
0.0
 40
2.799999999999999
100
AcDbArc
 50
286.939827291724
 51
35.92204725410119
  0
ARC
  5
1E48
330
1E
100
AcDbEntity
  8
SA
100
AcDbCircle
 10
262.4084352174393
 20
189.3872314726741
 30
0.0
 40
2.0
100
AcDbArc
 50
286.939827291724
 51
35.92204725410119
  0
ARC
  5
1E49
330
1E
100
AcDbEntity
  8
SA
100
AcDbCircle
 10
278.7249995966603
 20
135.8169997496477
 30
0.0
 40
54.0
100
AcDbArc
 50
100.6719292857625
 51
104.8979937566169
  0
LINE
  5
1E4A
330
1E
100
AcDbEntity
  8
HO
100
AcDbLine
 10
251.9249995966603
 20
193.9633667900742
 30
0.0
 11
307.9249995966602
 21
193.9633667900742
 31
0.0
  0
LINE
  5
1E4B
330
1E
100
AcDbEntity
  8
SB
100
AcDbLine
 10
262.9249995966603
 20
188.9633667900742
 30
0.0
 11
262.9249995966603
 21
198.9633667900742
 31
0.0
  0
LINE
  5
1E4C
330
1E
100
AcDbEntity
  8
SA
100
AcDbLine
 10
262.9249995966603
 20
196.9633667900742
 30
0.0
 11
263.7611301382639
 21
196.9633667900742
 31
0.0
  0
LINE
  5
1E4D
330
1E
100
AcDbEntity
  8
SA
100
AcDbLine
 10
262.9249995966603
 20
190.9633667900742
 30
0.0
 11
263.7611301382638
 21
190.9633667900743
 31
0.0
  0
LINE
  5
1E4E
330
1E
100
AcDbEntity
  8
SB
100
AcDbLine
 10
256.9249995966603
 20
189.7633667900743
 30
0.0
 11
256.9249995966603
 21
198.1633667900742
 31
0.0
  0
LINE
  5
1E4F
330
1E
100
AcDbEntity
  8
SB
100
AcDbLine
 10
257.7249995966603
 20
198.9633667900742
 30
0.0
 11
262.9249995966603
 21
198.9633667900742
 31
0.0
  0
LINE
  5
1E50
330
1E
100
AcDbEntity
  8
SB
100
AcDbLine
 10
257.7249995966603
 20
188.9633667900742
 30
0.0
 11
262.9249995966603
 21
188.9633667900742
 31
0.0
  0
LINE
  5
1E51
330
1E
100
AcDbEntity
  8
SB
100
AcDbLine
 10
257.7249995966602
 20
188.9633667900742
 30
0.0
 11
257.7249995966602
 21
198.9633667900742
 31
0.0
  0
LINE
  5
1E52
330
1E
100
AcDbEntity
  8
SB
100
AcDbLine
 10
256.9249995966603
 20
189.7633667900743
 30
0.0
 11
257.7249995966603
 21
188.9633667900742
 31
0.0
  0
LINE
  5
1E53
330
1E
100
AcDbEntity
  8
SB
100
AcDbLine
 10
256.9249995966603
 20
198.1633667900743
 30
0.0
 11
257.7249995966603
 21
198.9633667900742
 31
0.0
  0
LINE
  5
1E54
330
1E
100
AcDbEntity
  8
SC
100
AcDbLine
 10
258.9486325562336
 20
188.9633667900742
 30
0.0
 11
262.9249995966603
 21
192.9397338305008
 31
0.0
  0
LINE
  5
1E55
330
1E
100
AcDbEntity
  8
SC
100
AcDbLine
 10
257.8879723844537
 20
188.9633667900742
 30
0.0
 11
262.9249995966603
 21
194.0003940022807
 31
0.0
  0
LINE
  5
1E56
330
1E
100
AcDbEntity
  8
SC
100
AcDbLine
 10
257.7249995966603
 20
189.8610541740605
 30
0.0
 11
262.9249995966603
 21
195.0610541740605
 31
0.0
  0
LINE
  5
1E57
330
1E
100
AcDbEntity
  8
SC
100
AcDbLine
 10
257.7249995966603
 20
190.9217143458403
 30
0.0
 11
262.9249995966603
 21
196.1217143458402
 31
0.0
  0
LINE
  5
1E58
330
1E
100
AcDbEntity
  8
SC
100
AcDbLine
 10
257.7249995966603
 20
191.9823745176202
 30
0.0
 11
262.9249995966603
 21
197.1823745176201
 31
0.0
  0
LINE
  5
1E59
330
1E
100
AcDbEntity
  8
SC
100
AcDbLine
 10
257.7249995966603
 20
193.0430346894
 30
0.0
 11
262.9249995966603
 21
198.2430346893999
 31
0.0
  0
LINE
  5
1E5A
330
1E
100
AcDbEntity
  8
SC
100
AcDbLine
 10
257.7249995966603
 20
194.1036948611798
 30
0.0
 11
262.5846715255548
 21
198.9633667900742
 31
0.0
  0
LINE
  5
1E5B
330
1E
100
AcDbEntity
  8
SC
100
AcDbLine
 10
257.7249995966603
 20
195.1643550329597
 30
0.0
 11
261.5240113537749
 21
198.9633667900742
 31
0.0
  0
LINE
  5
1E5C
330
1E
100
AcDbEntity
  8
SC
100
AcDbLine
 10
257.7249995966603
 20
196.2250152047395
 30
0.0
 11
260.4633511819951
 21
198.9633667900742
 31
0.0
  0
LINE
  5
1E5D
330
1E
100
AcDbEntity
  8
SC
100
AcDbLine
 10
257.7249995966603
 20
197.2856753765193
 30
0.0
 11
259.4026910102152
 21
198.9633667900742
 31
0.0
  0
LINE
  5
1E5E
330
1E
100
AcDbEntity
  8
SC
100
AcDbLine
 10
257.7249995966603
 20
198.3463355482992
 30
0.0
 11
258.3420308384354
 21
198.9633667900742
 31
0.0
  0
LINE
  5
1E5F
330
1E
100
AcDbEntity
  8
SC
100
AcDbLine
 10
260.0092927280134
 20
188.9633667900742
 30
0.0
 11
262.9249995966603
 21
191.879073658721
 31
0.0
  0
LINE
  5
1E60
330
1E
100
AcDbEntity
  8
SC
100
AcDbLine
 10
261.0699528997932
 20
188.9633667900742
 30
0.0
 11
262.9249995966603
 21
190.8184134869412
 31
0.0
  0
LINE
  5
1E61
330
1E
100
AcDbEntity
  8
SC
100
AcDbLine
 10
262.130613071573
 20
188.9633667900742
 30
0.0
 11
262.9249995966603
 21
189.7577533151615
 31
0.0
  0
LINE
  5
1E62
330
1E
100
AcDbEntity
  8
SC
100
AcDbLine
 10
261.1706130715731
 20
198.9633667900742
 30
0.0
 11
262.9249995966602
 21
197.2089802649872
 31
0.0
  0
LINE
  5
1E63
330
1E
100
AcDbEntity
  8
SC
100
AcDbLine
 10
260.1099528997934
 20
198.9633667900742
 30
0.0
 11
262.9249995966603
 21
196.1483200932074
 31
0.0
  0
LINE
  5
1E64
330
1E
100
AcDbEntity
  8
SC
100
AcDbLine
 10
259.0492927280136
 20
198.9633667900742
 30
0.0
 11
262.9249995966603
 21
195.0876599214275
 31
0.0
  0
LINE
  5
1E65
330
1E
100
AcDbEntity
  8
SC
100
AcDbLine
 10
257.7249995966602
 20
189.6810582036293
 30
0.0
 11
258.4426910102152
 21
188.9633667900742
 31
0.0
  0
LINE
  5
1E66
330
1E
100
AcDbEntity
  8
SC
100
AcDbLine
 10
257.7249995966603
 20
190.741718375409
 30
0.0
 11
259.5033511819951
 21
188.9633667900742
 31
0.0
  0
LINE
  5
1E67
330
1E
100
AcDbEntity
  8
SC
100
AcDbLine
 10
257.7249995966602
 20
191.8023785471889
 30
0.0
 11
260.5640113537749
 21
188.9633667900742
 31
0.0
  0
LINE
  5
1E68
330
1E
100
AcDbEntity
  8
SC
100
AcDbLine
 10
257.7249995966602
 20
192.8630387189687
 30
0.0
 11
261.6246715255547
 21
188.9633667900742
 31
0.0
  0
LINE
  5
1E69
330
1E
100
AcDbEntity
  8
SC
100
AcDbLine
 10
257.7249995966602
 20
193.9236988907486
 30
0.0
 11
262.6853316973346
 21
188.9633667900742
 31
0.0
  0
LINE
  5
1E6A
330
1E
100
AcDbEntity
  8
SC
100
AcDbLine
 10
257.7249995966602
 20
194.9843590625284
 30
0.0
 11
262.9249995966603
 21
189.7843590625284
 31
0.0
  0
LINE
  5
1E6B
330
1E
100
AcDbEntity
  8
SC
100
AcDbLine
 10
257.7249995966602
 20
196.0450192343082
 30
0.0
 11
262.9249995966603
 21
190.8450192343082
 31
0.0
  0
LINE
  5
1E6C
330
1E
100
AcDbEntity
  8
SC
100
AcDbLine
 10
257.7249995966602
 20
197.105679406088
 30
0.0
 11
262.9249995966603
 21
191.905679406088
 31
0.0
  0
LINE
  5
1E6D
330
1E
100
AcDbEntity
  8
SC
100
AcDbLine
 10
257.7249995966602
 20
198.1663395778679
 30
0.0
 11
262.9249995966603
 21
192.9663395778679
 31
0.0
  0
LINE
  5
1E6E
330
1E
100
AcDbEntity
  8
SC
100
AcDbLine
 10
257.9886325562337
 20
198.9633667900742
 30
0.0
 11
262.9249995966603
 21
194.0269997496477
 31
0.0
  0
LINE
  5
1E6F
330
1E
100
AcDbEntity
  8
SC
100
AcDbLine
 10
262.231273243353
 20
198.9633667900742
 30
0.0
 11
262.9249995966602
 21
198.2696404367671
 31
0.0
  0
LINE
  5
1E70
330
1E
100
AcDbEntity
  8
SA
100
AcDbLine
 10
302.9249995966602
 20
191.7133667900742
 30
0.0
 11
302.9249995966602
 21
196.2133667900742
 31
0.0
  0
LINE
  5
1E71
330
1E
100
AcDbEntity
  8
SC
100
AcDbLine
 10
302.1749995966602
 20
190.9633667900742
 30
0.0
 11
302.1749995966602
 21
196.9633667900742
 31
0.0
  0
LINE
  5
1E72
330
1E
100
AcDbEntity
  8
SC
100
AcDbLine
 10
262.9249995966603
 20
191.7133667900742
 30
0.0
 11
263.3792068584408
 21
191.7133667900742
 31
0.0
  0
LINE
  5
1E73
330
1E
100
AcDbEntity
  8
SC
100
AcDbLine
 10
262.9249995966603
 20
196.2133667900742
 30
0.0
 11
263.3792068584408
 21
196.2133667900742
 31
0.0
  0
LINE
  5
1E74
330
1E
100
AcDbEntity
  8
SA
100
AcDbLine
 10
302.1749995966602
 20
190.9633667900742
 30
0.0
 11
302.9249995966602
 21
191.7133667900742
 31
0.0
  0
LINE
  5
1E75
330
1E
100
AcDbEntity
  8
SA
100
AcDbLine
 10
302.1749995966602
 20
196.9633667900742
 30
0.0
 11
302.9249995966602
 21
196.2133667900742
 31
0.0
  0
LINE
  5
1E76
330
1E
100
AcDbEntity
  8
SC
100
AcDbLine
 10
274.0707923348797
 20
191.7133667900742
 30
0.0
 11
283.3792068584407
 21
191.7133667900742
 31
0.0
  0
LINE
  5
1E77
330
1E
100
AcDbEntity
  8
SA
100
AcDbLine
 10
273.6888690550567
 20
190.9633667900742
 30
0.0
 11
283.7611301382639
 21
190.9633667900742
 31
0.0
  0
LINE
  5
1E78
330
1E
100
AcDbEntity
  8
SC
100
AcDbLine
 10
274.0707923348797
 20
196.2133667900742
 30
0.0
 11
283.3792068584407
 21
196.2133667900742
 31
0.0
  0
LINE
  5
1E79
330
1E
100
AcDbEntity
  8
SA
100
AcDbLine
 10
273.6888690550566
 20
196.9633667900742
 30
0.0
 11
283.7611301382639
 21
196.9633667900742
 31
0.0
  0
LINE
  5
1E7A
330
1E
100
AcDbEntity
  8
SA
100
AcDbLine
 10
293.6888690550566
 20
196.9633667900742
 30
0.0
 11
302.1749995966602
 21
196.9633667900742
 31
0.0
  0
LINE
  5
1E7B
330
1E
100
AcDbEntity
  8
SC
100
AcDbLine
 10
294.0707923348797
 20
196.2133667900742
 30
0.0
 11
302.9249995966602
 21
196.2133667900742
 31
0.0
  0
LINE
  5
1E7C
330
1E
100
AcDbEntity
  8
SC
100
AcDbLine
 10
294.0707923348797
 20
191.7133667900742
 30
0.0
 11
302.9249995966602
 21
191.7133667900742
 31
0.0
  0
LINE
  5
1E7D
330
1E
100
AcDbEntity
  8
SA
100
AcDbLine
 10
293.6888690550566
 20
190.9633667900742
 30
0.0
 11
302.1749995966602
 21
190.9633667900742
 31
0.0
  0
LINE
  5
1E7E
330
1E
100
AcDbEntity
  8
SC
100
AcDbLine
 10
224.0500919726953
 20
149.3319720511696
 30
0.0
 11
225.9181370201676
 21
147.1057226547167
 31
0.0
  0
LINE
  5
1E7F
330
1E
100
AcDbEntity
  8
SB
100
AcDbLine
 10
226.1039383793686
 20
160.822477476859
 30
0.0
 11
225.3521842827399
 21
161.0960935915195
 31
0.0
  0
LINE
  5
1E80
330
1E
100
AcDbEntity
  8
SC
100
AcDbLine
 10
223.2382255189766
 20
148.5632895020466
 30
0.0
 11
228.026507525536
 21
161.7189861930492
 31
0.0
  0
LINE
  5
1E81
330
1E
100
AcDbEntity
  8
SC
100
AcDbLine
 10
222.7683792085837
 20
148.7342995737094
 30
0.0
 11
227.556661215143
 21
161.8899962647121
 31
0.0
  0
LINE
  5
1E82
330
1E
100
AcDbEntity
  8
SC
100
AcDbLine
 10
222.2985328981907
 20
148.9053096453722
 30
0.0
 11
227.0868149047501
 21
162.061006336375
 31
0.0
  0
LINE
  5
1E83
330
1E
100
AcDbEntity
  8
SB
100
AcDbLine
 10
221.8286865877978
 20
149.0763197170351
 30
0.0
 11
226.6169685943572
 21
162.2320164080378
 31
0.0
  0
LINE
  5
1E84
330
1E
100
AcDbEntity
  8
SB
100
AcDbLine
 10
223.7080718293696
 20
148.3922794303837
 30
0.0
 11
228.496353835929
 21
161.5479761213865
 31
0.0
  0
LINE
  5
1E85
330
1E
100
AcDbEntity
  8
SC
100
AcDbLine
 10
209.3409645043117
 20
159.2084121547113
 30
0.0
 11
214.3213353944772
 21
157.3957053950851
 31
0.0
  0
LINE
  5
1E86
330
1E
100
AcDbEntity
  8
SB
100
AcDbLine
 10
209.3409645043117
 20
159.2084121547113
 30
0.0
 11
209.7892188624069
 21
158.2471275816276
 31
0.0
  0
LINE
  5
1E87
330
1E
100
AcDbEntity
  8
SB
100
AcDbLine
 10
209.3409645043117
 20
159.2084121547113
 30
0.0
 11
210.5380350059516
 21
162.497336327462
 31
0.0
  0
LINE
  5
1E88
330
1E
100
AcDbEntity
  8
SB
100
AcDbLine
 10
221.5899627061576
 20
150.7594747628745
 30
0.0
 11
225.3521842827399
 21
161.0960935915195
 31
0.0
  0
LINE
  5
1E89
330
1E
100
AcDbEntity
  8
SB
100
AcDbLine
 10
218.767256672028
 20
153.9684201729569
 30
0.0
 11
219.0787029727929
 21
152.6312585515588
 31
0.0
  0
LINE
  5
1E8A
330
1E
100
AcDbEntity
  8
SB
100
AcDbLine
 10
218.0661153782104
 20
152.0420503003458
 30
0.0
 11
221.8283369547929
 21
162.3786691289907
 31
0.0
  0
LINE
  5
1E8B
330
1E
100
AcDbEntity
  8
SB
100
AcDbLine
 10
217.3143612815817
 20
152.3156664150063
 30
0.0
 11
221.0765828581642
 21
162.6522852436512
 31
0.0
  0
LINE
  5
1E8C
330
1E
100
AcDbEntity
  8
SB
100
AcDbLine
 10
216.5626071849532
 20
152.5892825296667
 30
0.0
 11
220.3248287615354
 21
162.9259013583117
 31
0.0
  0
LINE
  5
1E8D
330
1E
100
AcDbEntity
  8
SB
100
AcDbLine
 10
214.8379937812376
 20
156.6223593461587
 30
0.0
 11
217.6570716435953
 21
155.5962989161817
 31
0.0
  0
LINE
  5
1E8E
330
1E
100
AcDbEntity
  8
SB
100
AcDbLine
 10
216.4112864405357
 20
160.9449454017739
 30
0.0
 11
219.2303643028933
 21
159.9188849717968
 31
0.0
  0
LINE
  5
1E8F
330
1E
100
AcDbEntity
  8
SB
100
AcDbLine
 10
217.1979327701848
 20
163.1062384295814
 30
0.0
 11
220.0170106325424
 21
162.0801779996044
 31
0.0
  0
LINE
  5
1E90
330
1E
100
AcDbEntity
  8
SC
100
AcDbLine
 10
209.7892188624069
 20
158.2471275816276
 30
0.0
 11
211.4993195790353
 21
162.9455906855572
 31
0.0
  0
LINE
  5
1E91
330
1E
100
AcDbEntity
  8
SC
100
AcDbLine
 10
213.7399011508236
 20
155.7982279397491
 30
0.0
 11
216.0998401397707
 21
162.2821070231719
 31
0.0
  0
ARC
  5
1E92
330
1E
100
AcDbEntity
  8
SB
100
AcDbCircle
 10
218.5862380207303
 20
157.7057188889182
 30
0.0
 40
3.901666666666711
100
AcDbArc
 50
123.8790561276022
 51
196.1209438723976
  0
LINE
  5
1E93
330
1E
100
AcDbEntity
  8
SC
100
AcDbLine
 10
210.5380350059515
 20
162.4973363274619
 30
0.0
 11
215.5184058961171
 21
160.6846295678358
 31
0.0
  0
LINE
  5
1E94
330
1E
100
AcDbEntity
  8
SB
100
AcDbLine
 10
211.4993195790353
 20
162.9455906855572
 30
0.0
 11
215.7749210036113
 21
161.3893990334253
 31
0.0
  0
LINE
  5
1E95
330
1E
100
AcDbEntity
  8
SB
100
AcDbLine
 10
210.5380350059516
 20
162.497336327462
 30
0.0
 11
211.4993195790353
 21
162.9455906855572
 31
0.0
  0
ARC
  5
1E96
330
1E
100
AcDbEntity
  8
SB
100
AcDbCircle
 10
217.280720533225
 20
161.852301709726
 30
0.0
 40
1.256666666666669
100
AcDbArc
 50
159.9999999999999
 51
226.2226839207445
  0
LINE
  5
1E97
330
1E
100
AcDbEntity
  8
SB
100
AcDbLine
 10
216.0998401397707
 20
162.2821070231719
 30
0.0
 11
217.1979327701846
 21
163.1062384295814
 31
0.0
  0
LINE
  5
1E98
330
1E
100
AcDbEntity
  8
SB
100
AcDbLine
 10
209.7892188624069
 20
158.2471275816276
 30
0.0
 11
214.0648202869829
 21
156.6909359294956
 31
0.0
  0
ARC
  5
1E99
330
1E
100
AcDbEntity
  8
SB
100
AcDbCircle
 10
214.9207815442779
 20
155.3684226263032
 30
0.0
 40
1.256666666666669
100
AcDbArc
 50
93.77731607925579
 51
159.9999999999999
  0
LINE
  5
1E9A
330
1E
100
AcDbEntity
  8
SB
100
AcDbLine
 10
213.7399011508236
 20
155.7982279397491
 30
0.0
 11
214.0513474515885
 21
154.4610663183511
 31
0.0
  0
LINE
  5
1E9B
330
1E
100
AcDbEntity
  8
SB
100
AcDbLine
 10
214.0513474515885
 20
154.4610663183511
 30
0.0
 11
216.8704253139462
 21
153.4350058883741
 31
0.0
  0
LINE
  5
1E9C
330
1E
100
AcDbEntity
  8
SB
100
AcDbLine
 10
221.4386419617401
 20
159.1151376349816
 30
0.0
 11
224.2577198240978
 21
158.0890772050046
 31
0.0
  0
ARC
  5
1E9D
330
1E
100
AcDbEntity
  8
SB
100
AcDbCircle
 10
223.6135935419347
 20
155.8759111221259
 30
0.0
 40
3.901666666666711
100
AcDbArc
 50
123.8790561276022
 51
196.1209438723976
  0
LINE
  5
1E9E
330
1E
100
AcDbEntity
  8
SB
100
AcDbLine
 10
221.1271956609751
 20
160.4522992563796
 30
0.0
 11
222.2252882913891
 21
161.2764306627892
 31
0.0
  0
LINE
  5
1E9F
330
1E
100
AcDbEntity
  8
SB
100
AcDbLine
 10
221.8283369547929
 20
162.3786691289907
 30
0.0
 11
220.3248287615354
 21
162.9259013583117
 31
0.0
  0
ARC
  5
1EA0
330
1E
100
AcDbEntity
  8
SB
100
AcDbCircle
 10
222.3080760544294
 20
160.0224939429337
 30
0.0
 40
1.256666666666669
100
AcDbArc
 50
159.9999999999999
 51
226.2226839207445
  0
LINE
  5
1EA1
330
1E
100
AcDbEntity
  8
SB
100
AcDbLine
 10
222.2252882913892
 20
161.2764306627891
 30
0.0
 11
225.0443661537468
 21
160.2503702328122
 31
0.0
  0
LINE
  5
1EA2
330
1E
100
AcDbEntity
  8
SB
100
AcDbLine
 10
219.865349302442
 20
154.7925515793664
 30
0.0
 11
222.6844271647997
 21
153.7664911493894
 31
0.0
  0
ARC
  5
1EA3
330
1E
100
AcDbEntity
  8
SB
100
AcDbCircle
 10
219.9481370654823
 20
153.5386148595109
 30
0.0
 40
1.256666666666669
100
AcDbArc
 50
93.77731607925579
 51
159.9999999999999
  0
LINE
  5
1EA4
330
1E
100
AcDbEntity
  8
SB
100
AcDbLine
 10
218.0661153782105
 20
152.0420503003457
 30
0.0
 11
216.5626071849532
 21
152.5892825296668
 31
0.0
  0
LINE
  5
1EA5
330
1E
100
AcDbEntity
  8
SB
100
AcDbLine
 10
222.3417168027863
 20
150.485858648214
 30
0.0
 11
221.5899627061575
 21
150.7594747628745
 31
0.0
  0
LINE
  5
1EA6
330
1E
100
AcDbEntity
  8
SB
100
AcDbLine
 10
219.0787029727931
 20
152.6312585515588
 30
0.0
 11
221.8977808351507
 21
151.6051981215818
 31
0.0
  0
LINE
  5
1EA7
330
1E
100
AcDbEntity
  8
SB
100
AcDbLine
 10
223.7080718293696
 20
148.3922794303837
 30
0.0
 11
221.8286865877978
 21
149.0763197170351
 31
0.0
  0
LINE
  5
1EA8
330
1E
100
AcDbEntity
  8
SC
100
AcDbLine
 10
228.1543336926033
 20
160.6082835006007
 30
0.0
 11
231.0163447488275
 21
161.1129332688989
 31
0.0
  0
LINE
  5
1EA9
330
1E
100
AcDbEntity
  8
SB
100
AcDbLine
 10
228.496353835929
 20
161.5479761213864
 30
0.0
 11
226.6169685943572
 21
162.2320164080378
 31
0.0
  0
LINE
  5
1EAA
330
1E
100
AcDbEntity
  8
HO
100
AcDbLine
 10
236.4388316612943
 20
151.2079061993027
 30
0.0
 11
205.2410366512021
 21
162.562974957715
 31
0.0
  0
LINE
  5
1EAB
330
1E
100
AcDbEntity
  8
SA
100
AcDbLine
 10
228.9152646920729
 20
131.4592126122648
 30
0.0
 11
225.7274416581793
 21
131.1803142354722
 31
0.0
  0
LINE
  5
1EAC
330
1E
100
AcDbEntity
  8
SA
100
AcDbLine
 10
228.9152646920729
 20
140.1747868870306
 30
0.0
 11
225.7274416581793
 21
140.4536852638231
 31
0.0
  0
LINE
  5
1EAD
330
1E
100
AcDbEntity
  8
HO
100
AcDbLine
 10
133.7249995966601
 20
207.2633667900742
 30
0.0
 11
133.7249995966601
 21
74.31699974964771
 31
0.0
  0
LINE
  5
1EAE
330
1E
100
AcDbEntity
  8
SA
100
AcDbLine
 10
158.7249995966601
 20
189.8169997496477
 30
0.0
 11
150.2249995966601
 21
189.8169997496477
 31
0.0
  0
LINE
  5
1EAF
330
1E
100
AcDbEntity
  8
SA
100
AcDbLine
 10
158.7249995966601
 20
81.81699974964768
 30
0.0
 11
108.7249995966601
 21
81.81699974964768
 31
0.0
  0
LINE
  5
1EB0
330
1E
100
AcDbEntity
  8
HO
100
AcDbLine
 10
151.2249995966601
 20
160.8528742410866
 30
0.0
 11
116.2249995966601
 21
160.8528742410866
 31
0.0
  0
CIRCLE
  5
1EB1
330
1E
100
AcDbEntity
  8
SA
100
AcDbCircle
 10
133.7249995966601
 20
160.8528742410866
 30
0.0
 40
2.5
  0
LINE
  5
1EB2
330
1E
100
AcDbEntity
  8
SA
100
AcDbLine
 10
133.7249995966601
 20
165.4528742410866
 30
0.0
 11
137.7087164540685
 21
163.1528742410867
 31
0.0
  0
LINE
  5
1EB3
330
1E
100
AcDbEntity
  8
SA
100
AcDbLine
 10
137.7087164540685
 20
163.1528742410867
 30
0.0
 11
137.7087164540685
 21
158.5528742410865
 31
0.0
  0
LINE
  5
1EB4
330
1E
100
AcDbEntity
  8
SA
100
AcDbLine
 10
133.7249995966601
 20
156.2528742410866
 30
0.0
 11
137.7087164540685
 21
158.5528742410866
 31
0.0
  0
LINE
  5
1EB5
330
1E
100
AcDbEntity
  8
SA
100
AcDbLine
 10
133.72499959666
 20
165.4528742410866
 30
0.0
 11
129.7412827392517
 21
163.1528742410867
 31
0.0
  0
LINE
  5
1EB6
330
1E
100
AcDbEntity
  8
SA
100
AcDbLine
 10
129.7412827392517
 20
163.1528742410867
 30
0.0
 11
129.7412827392517
 21
158.5528742410865
 31
0.0
  0
LINE
  5
1EB7
330
1E
100
AcDbEntity
  8
SA
100
AcDbLine
 10
133.72499959666
 20
156.2528742410866
 30
0.0
 11
129.7412827392517
 21
158.5528742410866
 31
0.0
  0
CIRCLE
  5
1EB8
330
1E
100
AcDbEntity
  8
SC
100
AcDbCircle
 10
133.7249995966601
 20
160.8528742410866
 30
0.0
 40
3.983716857408481
  0
CIRCLE
  5
1EB9
330
1E
100
AcDbEntity
  8
SC
100
AcDbCircle
 10
133.7249995966601
 20
160.8528742410866
 30
0.0
 40
1.9
  0
CIRCLE
  5
1EBA
330
1E
100
AcDbEntity
  8
SA
100
AcDbCircle
 10
133.7249995966601
 20
160.8528742410866
 30
0.0
 40
7.0
  0
LINE
  5
1EBB
330
1E
100
AcDbEntity
  8
HO
100
AcDbLine
 10
101.2249995966602
 20
135.8169997496477
 30
0.0
 11
166.2249995966601
 21
135.8169997496476
 31
0.0
  0
ARC
  5
1EBC
330
1E
100
AcDbEntity
  8
SA
100
AcDbCircle
 10
133.7249995966601
 20
160.8528742410866
 30
0.0
 40
12.5
100
AcDbArc
 50
0.0
 51
180.0
  0
LINE
  5
1EBD
330
1E
100
AcDbEntity
  8
SA
100
AcDbLine
 10
121.2249995966601
 20
160.8528742410866
 30
0.0
 11
121.2249995966601
 21
110.7811252582088
 31
0.0
  0
LINE
  5
1EBE
330
1E
100
AcDbEntity
  8
SA
100
AcDbLine
 10
146.2249995966601
 20
160.8528742410866
 30
0.0
 11
146.2249995966601
 21
110.7811252582088
 31
0.0
  0
LINE
  5
1EBF
330
1E
100
AcDbEntity
  8
SA
100
AcDbLine
 10
158.7249995966601
 20
199.7633667900742
 30
0.0
 11
158.7249995966601
 21
81.8169997496477
 31
0.0
  0
LINE
  5
1EC0
330
1E
100
AcDbEntity
  8
SA
100
AcDbLine
 10
108.7249995966601
 20
199.7633667900742
 30
0.0
 11
108.7249995966601
 21
81.81699974964768
 31
0.0
  0
ARC
  5
1EC1
330
1E
100
AcDbEntity
  8
SA
100
AcDbCircle
 10
133.7249995966601
 20
110.7811252582088
 30
0.0
 40
12.5
100
AcDbArc
 50
180.0
 51
0.0
  0
CIRCLE
  5
1EC2
330
1E
100
AcDbEntity
  8
SC
100
AcDbCircle
 10
133.7249995966601
 20
110.7811252582088
 30
0.0
 40
1.9
  0
CIRCLE
  5
1EC3
330
1E
100
AcDbEntity
  8
SA
100
AcDbCircle
 10
133.7249995966601
 20
110.7811252582088
 30
0.0
 40
2.5
  0
CIRCLE
  5
1EC4
330
1E
100
AcDbEntity
  8
SC
100
AcDbCircle
 10
133.7249995966601
 20
110.7811252582088
 30
0.0
 40
3.983716857408481
  0
LINE
  5
1EC5
330
1E
100
AcDbEntity
  8
SA
100
AcDbLine
 10
133.7249995966601
 20
106.1811252582087
 30
0.0
 11
137.7087164540685
 21
108.4811252582087
 31
0.0
  0
LINE
  5
1EC6
330
1E
100
AcDbEntity
  8
SA
100
AcDbLine
 10
133.7249995966601
 20
115.3811252582087
 30
0.0
 11
137.7087164540685
 21
113.0811252582088
 31
0.0
  0
CIRCLE
  5
1EC7
330
1E
100
AcDbEntity
  8
SA
100
AcDbCircle
 10
133.7249995966601
 20
110.7811252582088
 30
0.0
 40
7.0
  0
LINE
  5
1EC8
330
1E
100
AcDbEntity
  8
SA
100
AcDbLine
 10
133.72499959666
 20
106.1811252582087
 30
0.0
 11
129.7412827392517
 21
108.4811252582087
 31
0.0
  0
LINE
  5
1EC9
330
1E
100
AcDbEntity
  8
SA
100
AcDbLine
 10
129.7412827392517
 20
108.4811252582087
 30
0.0
 11
129.7412827392517
 21
113.0811252582088
 31
0.0
  0
LINE
  5
1ECA
330
1E
100
AcDbEntity
  8
SA
100
AcDbLine
 10
133.72499959666
 20
115.3811252582087
 30
0.0
 11
129.7412827392517
 21
113.0811252582088
 31
0.0
  0
LINE
  5
1ECB
330
1E
100
AcDbEntity
  8
SA
100
AcDbLine
 10
137.7087164540685
 20
108.4811252582087
 30
0.0
 11
137.7087164540685
 21
113.0811252582088
 31
0.0
  0
LINE
  5
1ECC
330
1E
100
AcDbEntity
  8
HO
100
AcDbLine
 10
151.2249995966601
 20
110.7811252582088
 30
0.0
 11
116.2249995966601
 21
110.7811252582088
 31
0.0
  0
LINE
  5
1ECD
330
1E
100
AcDbEntity
  8
HA
100
AcDbLine
 10
158.7249995966601
 20
185.8169997496476
 30
0.0
 11
150.2249995966601
 21
185.8169997496476
 31
0.0
  0
LINE
  5
1ECE
330
1E
100
AcDbEntity
  8
HA
100
AcDbLine
 10
158.7249995966601
 20
85.81699974964768
 30
0.0
 11
108.7249995966601
 21
85.81699974964774
 31
0.0
  0
LINE
  5
1ECF
330
1E
100
AcDbEntity
  8
SA
100
AcDbLine
 10
146.2249995966601
 20
131.1803142354722
 30
0.0
 11
121.2249995966601
 21
131.1803142354722
 31
0.0
  0
LINE
  5
1ED0
330
1E
100
AcDbEntity
  8
SA
100
AcDbLine
 10
146.2249995966601
 20
140.453685263823
 30
0.0
 11
121.2249995966601
 21
140.4536852638231
 31
0.0
  0
LINE
  5
1ED1
330
1E
100
AcDbEntity
  8
HA
100
AcDbLine
 10
121.2249995966601
 20
140.4536852638231
 30
0.0
 11
108.7249995966601
 21
140.4536852638231
 31
0.0
  0
LINE
  5
1ED2
330
1E
100
AcDbEntity
  8
HA
100
AcDbLine
 10
121.2249995966601
 20
131.1803142354723
 30
0.0
 11
108.7249995966601
 21
131.1803142354723
 31
0.0
  0
LINE
  5
1ED3
330
1E
100
AcDbEntity
  8
HA
100
AcDbLine
 10
146.2249995966601
 20
131.1803142354723
 30
0.0
 11
158.7249995966601
 21
131.1803142354723
 31
0.0
  0
LINE
  5
1ED4
330
1E
100
AcDbEntity
  8
HA
100
AcDbLine
 10
146.2249995966601
 20
140.4536852638231
 30
0.0
 11
158.7249995966601
 21
140.4536852638231
 31
0.0
  0
LINE
  5
1ED5
330
1E
100
AcDbEntity
  8
SC
100
AcDbLine
 10
329.5937993195356
 20
182.4363649829281
 30
0.0
 11
243.7066229758401
 21
103.7239584658677
 31
0.0
  0
SOLID
  5
1ED6
330
1E
100
AcDbEntity
  8
SC
100
AcDbTrace
 10
313.4618583114822
 20
168.2172197757156
 30
0.0
 11
314.0248941234783
 21
167.6028622911398
 31
0.0
 12
315.5864486712076
 22
169.5991484694161
 32
0.0
 13
315.5864486712076
 23
169.5991484694161
 33
0.0
  0
SOLID
  5
1ED7
330
1E
100
AcDbEntity
  8
SC
100
AcDbTrace
 10
243.4251050698421
 20
104.0311372081556
 30
0.0
 11
243.9881408818382
 21
103.4167797235798
 31
0.0
 12
241.8635505221128
 22
102.0348510298793
 32
0.0
 13
241.8635505221128
 23
102.0348510298793
 33
0.0
  0
LINE
  5
1ED8
330
1E
100
AcDbEntity
  8
SC
100
AcDbLine
 10
158.7249995966601
 20
200.7633667900742
 30
0.0
 11
158.7249995966601
 21
214.2633667900743
 31
0.0
  0
LINE
  5
1ED9
330
1E
100
AcDbEntity
  8
SC
100
AcDbLine
 10
108.7249995966601
 20
200.7633667900742
 30
0.0
 11
108.7249995966601
 21
214.2633667900743
 31
0.0
  0
LINE
  5
1EDA
330
1E
100
AcDbEntity
  8
SC
100
AcDbLine
 10
156.2249995966601
 20
212.2633667900743
 30
0.0
 11
111.2249995966601
 21
212.2633667900743
 31
0.0
  0
SOLID
  5
1EDB
330
1E
100
AcDbEntity
  8
SC
100
AcDbTrace
 10
156.2249995966601
 20
212.680033456741
 30
0.0
 11
156.2249995966601
 21
211.8467001234076
 31
0.0
 12
158.7249995966601
 22
212.2633667900743
 32
0.0
 13
158.7249995966601
 23
212.2633667900743
 33
0.0
  0
SOLID
  5
1EDC
330
1E
100
AcDbEntity
  8
SC
100
AcDbTrace
 10
111.2249995966601
 20
212.680033456741
 30
0.0
 11
111.2249995966601
 21
211.8467001234076
 31
0.0
 12
108.7249995966601
 22
212.2633667900743
 32
0.0
 13
108.7249995966601
 23
212.2633667900743
 33
0.0
  0
SOLID
  5
1EDF
330
1E
100
AcDbEntity
  8
SC
100
AcDbTrace
 10
320.0969191449004
 20
174.2980065452738
 30
0.0
 11
320.6599549568966
 21
173.6836490606981
 31
0.0
 12
318.5353645971712
 22
172.3017203669974
 32
0.0
 13
318.5353645971712
 23
172.3017203669974
 33
0.0
  0
TEXT
  5
1EE0
330
1E
100
AcDbEntity
  8
SC
100
AcDbText
 10
320.730246030803
 20
176.8966634039472
 30
0.0
 40
3.0
  1
t4.5
 50
42.50410078103731
  7
0
100
AcDbText
  0
LINE
  5
1EE1
330
1E
100
AcDbEntity
  8
HO
100
AcDbLine
 10
278.7249995966602
 20
204.4633667900742
 30
0.0
 11
278.7249995966602
 21
74.31699974964771
 31
0.0
  0
CIRCLE
  5
1EE7
330
1E
100
AcDbEntity
  8
SB
100
AcDbCircle
 10
133.7249995966601
 20
160.8528742410866
 30
0.0
 40
5.5
  0
CIRCLE
  5
1EE8
330
1E
100
AcDbEntity
  8
SB
100
AcDbCircle
 10
133.7249995966601
 20
110.7811252582087
 30
0.0
 40
5.5
  0
LINE
  5
1EE9
330
1E
100
AcDbEntity
  8
HO
100
AcDbLine
 10
321.0111675320261
 20
151.2079061993027
 30
0.0
 11
352.2089625421182
 21
162.562974957715
 31
0.0
  0
ARC
  5
1EEA
330
1E
100
AcDbEntity
  8
SB
100
AcDbCircle
 10
333.8364056513857
 20
155.8759111221259
 30
0.0
 40
3.901666666666711
100
AcDbArc
 50
343.8790561276023
 51
56.12094387239775
  0
LINE
  5
1EEB
330
1E
100
AcDbEntity
  8
SB
100
AcDbLine
 10
336.0113572315803
 20
159.1151376349816
 30
0.0
 11
333.1922793692225
 21
158.0890772050046
 31
0.0
  0
LINE
  5
1EEC
330
1E
100
AcDbEntity
  8
SB
100
AcDbLine
 10
347.6607803309134
 20
158.2471275816276
 30
0.0
 11
343.3851789063374
 21
156.6909359294956
 31
0.0
  0
ARC
  5
1EED
330
1E
100
AcDbEntity
  8
SB
100
AcDbCircle
 10
338.8637611725901
 20
157.7057188889182
 30
0.0
 40
3.901666666666711
100
AcDbArc
 50
343.8790561276023
 51
56.12094387239775
  0
LINE
  5
1EEE
330
1E
100
AcDbEntity
  8
SC
100
AcDbLine
 10
343.7100980424967
 20
155.7982279397491
 30
0.0
 11
341.3501590535497
 21
162.2821070231719
 31
0.0
  0
LINE
  5
1EEF
330
1E
100
AcDbEntity
  8
SB
100
AcDbLine
 10
340.8873920083672
 20
152.5892825296667
 30
0.0
 11
337.1251704317849
 21
162.9259013583117
 31
0.0
  0
LINE
  5
1EF0
330
1E
100
AcDbEntity
  8
SB
100
AcDbLine
 10
340.1356379117386
 20
152.3156664150063
 30
0.0
 11
336.3734163351562
 21
162.6522852436512
 31
0.0
  0
LINE
  5
1EF1
330
1E
100
AcDbEntity
  8
SB
100
AcDbLine
 10
339.3838838151099
 20
152.0420503003458
 30
0.0
 11
335.6216622385275
 21
162.3786691289907
 31
0.0
  0
LINE
  5
1EF2
330
1E
100
AcDbEntity
  8
SB
100
AcDbLine
 10
335.8600364871628
 20
150.7594747628745
 30
0.0
 11
332.0978149105804
 21
161.0960935915195
 31
0.0
  0
LINE
  5
1EF3
330
1E
100
AcDbEntity
  8
SC
100
AcDbLine
 10
348.1090346890086
 20
159.2084121547113
 30
0.0
 11
343.1286637988431
 21
157.3957053950851
 31
0.0
  0
LINE
  5
1EF4
330
1E
100
AcDbEntity
  8
SB
100
AcDbLine
 10
333.7419273639507
 20
148.3922794303837
 30
0.0
 11
328.9536453573913
 21
161.5479761213865
 31
0.0
  0
LINE
  5
1EF5
330
1E
100
AcDbEntity
  8
SB
100
AcDbLine
 10
335.6213126055226
 20
149.0763197170351
 30
0.0
 11
330.8330305989632
 21
162.2320164080378
 31
0.0
  0
LINE
  5
1EF6
330
1E
100
AcDbEntity
  8
SC
100
AcDbLine
 10
335.1514662951296
 20
148.9053096453722
 30
0.0
 11
330.3631842885702
 21
162.061006336375
 31
0.0
  0
LINE
  5
1EF7
330
1E
100
AcDbEntity
  8
SC
100
AcDbLine
 10
334.6816199847367
 20
148.7342995737094
 30
0.0
 11
329.8933379781773
 21
161.8899962647121
 31
0.0
  0
LINE
  5
1EF8
330
1E
100
AcDbEntity
  8
SC
100
AcDbLine
 10
334.2117736743437
 20
148.5632895020466
 30
0.0
 11
329.4234916677843
 21
161.7189861930492
 31
0.0
  0
LINE
  5
1EF9
330
1E
100
AcDbEntity
  8
SB
100
AcDbLine
 10
343.3986517417318
 20
154.4610663183511
 30
0.0
 11
340.5795738793742
 21
153.4350058883741
 31
0.0
  0
LINE
  5
1EFA
330
1E
100
AcDbEntity
  8
SB
100
AcDbLine
 10
342.6120054120828
 20
156.6223593461587
 30
0.0
 11
339.7929275497251
 21
155.5962989161817
 31
0.0
  0
LINE
  5
1EFB
330
1E
100
AcDbEntity
  8
SB
100
AcDbLine
 10
343.7100980424967
 20
155.7982279397491
 30
0.0
 11
343.3986517417318
 21
154.4610663183511
 31
0.0
  0
ARC
  5
1EFC
330
1E
100
AcDbEntity
  8
SB
100
AcDbCircle
 10
342.5292176490425
 20
155.3684226263032
 30
0.0
 40
1.256666666666669
100
AcDbArc
 50
20.00000000000009
 51
86.22268392074422
  0
LINE
  5
1EFD
330
1E
100
AcDbEntity
  8
SA
100
AcDbLine
 10
328.5347345012475
 20
140.1747868870306
 30
0.0
 11
331.7225575351411
 21
140.4536852638231
 31
0.0
  0
LINE
  5
1EFE
330
1E
100
AcDbEntity
  8
SB
100
AcDbLine
 10
333.7419273639507
 20
148.3922794303837
 30
0.0
 11
335.6213126055226
 21
149.0763197170351
 31
0.0
  0
LINE
  5
1EFF
330
1E
100
AcDbEntity
  8
SB
100
AcDbLine
 10
338.3712962205273
 20
152.6312585515588
 30
0.0
 11
335.5522183581696
 21
151.6051981215818
 31
0.0
  0
LINE
  5
1F00
330
1E
100
AcDbEntity
  8
SB
100
AcDbLine
 10
339.3838838151098
 20
152.0420503003457
 30
0.0
 11
340.8873920083672
 21
152.5892825296668
 31
0.0
  0
LINE
  5
1F01
330
1E
100
AcDbEntity
  8
SB
100
AcDbLine
 10
335.108282390534
 20
150.485858648214
 30
0.0
 11
335.8600364871628
 21
150.7594747628745
 31
0.0
  0
ARC
  5
1F02
330
1E
100
AcDbEntity
  8
SB
100
AcDbCircle
 10
337.5018621278381
 20
153.5386148595109
 30
0.0
 40
1.256666666666669
100
AcDbArc
 50
20.00000000000009
 51
86.22268392074422
  0
LINE
  5
1F03
330
1E
100
AcDbEntity
  8
SB
100
AcDbLine
 10
338.6827425212923
 20
153.9684201729569
 30
0.0
 11
338.3712962205274
 21
152.6312585515588
 31
0.0
  0
LINE
  5
1F04
330
1E
100
AcDbEntity
  8
SB
100
AcDbLine
 10
337.5846498908784
 20
154.7925515793664
 30
0.0
 11
334.7655720285207
 21
153.7664911493894
 31
0.0
  0
LINE
  5
1F05
330
1E
100
AcDbEntity
  8
SC
100
AcDbLine
 10
333.3999072206251
 20
149.3319720511696
 30
0.0
 11
331.5318621731527
 21
147.1057226547167
 31
0.0
  0
LINE
  5
1F06
330
1E
100
AcDbEntity
  8
SB
100
AcDbLine
 10
345.950679614285
 20
162.9455906855572
 30
0.0
 11
341.675078189709
 21
161.3893990334253
 31
0.0
  0
LINE
  5
1F07
330
1E
100
AcDbEntity
  8
SC
100
AcDbLine
 10
346.9119641873688
 20
162.4973363274619
 30
0.0
 11
341.9315932972032
 21
160.6846295678358
 31
0.0
  0
LINE
  5
1F08
330
1E
100
AcDbEntity
  8
SB
100
AcDbLine
 10
346.9119641873688
 20
162.497336327462
 30
0.0
 11
345.950679614285
 21
162.9455906855572
 31
0.0
  0
LINE
  5
1F09
330
1E
100
AcDbEntity
  8
SC
100
AcDbLine
 10
347.6607803309134
 20
158.2471275816276
 30
0.0
 11
345.950679614285
 21
162.9455906855572
 31
0.0
  0
LINE
  5
1F0A
330
1E
100
AcDbEntity
  8
SB
100
AcDbLine
 10
348.1090346890086
 20
159.2084121547113
 30
0.0
 11
346.9119641873688
 21
162.497336327462
 31
0.0
  0
LINE
  5
1F0B
330
1E
100
AcDbEntity
  8
SB
100
AcDbLine
 10
348.1090346890086
 20
159.2084121547113
 30
0.0
 11
347.6607803309134
 21
158.2471275816276
 31
0.0
  0
LINE
  5
1F0C
330
1E
100
AcDbEntity
  8
SB
100
AcDbLine
 10
335.2247109019312
 20
161.2764306627891
 30
0.0
 11
332.4056330395736
 21
160.2503702328122
 31
0.0
  0
LINE
  5
1F0D
330
1E
100
AcDbEntity
  8
SB
100
AcDbLine
 10
340.2520664231356
 20
163.1062384295814
 30
0.0
 11
337.432988560778
 21
162.0801779996044
 31
0.0
  0
LINE
  5
1F0E
330
1E
100
AcDbEntity
  8
SB
100
AcDbLine
 10
341.3501590535497
 20
162.2821070231719
 30
0.0
 11
340.2520664231357
 21
163.1062384295814
 31
0.0
  0
ARC
  5
1F0F
330
1E
100
AcDbEntity
  8
SB
100
AcDbCircle
 10
340.1692786600953
 20
161.852301709726
 30
0.0
 40
1.256666666666669
100
AcDbArc
 50
313.7773160792554
 51
20.00000000000009
  0
LINE
  5
1F10
330
1E
100
AcDbEntity
  8
SB
100
AcDbLine
 10
341.0387127527847
 20
160.9449454017739
 30
0.0
 11
338.2196348904269
 21
159.9188849717968
 31
0.0
  0
ARC
  5
1F11
330
1E
100
AcDbEntity
  8
SB
100
AcDbCircle
 10
335.1419231388909
 20
160.0224939429337
 30
0.0
 40
1.256666666666669
100
AcDbArc
 50
313.7773160792554
 51
20.00000000000009
  0
LINE
  5
1F12
330
1E
100
AcDbEntity
  8
SB
100
AcDbLine
 10
335.6216622385275
 20
162.3786691289907
 30
0.0
 11
337.1251704317849
 21
162.9259013583117
 31
0.0
  0
LINE
  5
1F13
330
1E
100
AcDbEntity
  8
SB
100
AcDbLine
 10
336.3228035323452
 20
160.4522992563796
 30
0.0
 11
335.2247109019313
 21
161.2764306627892
 31
0.0
  0
LINE
  5
1F14
330
1E
100
AcDbEntity
  8
SB
100
AcDbLine
 10
328.9536453573913
 20
161.5479761213864
 30
0.0
 11
330.8330305989632
 21
162.2320164080378
 31
0.0
  0
LINE
  5
1F15
330
1E
100
AcDbEntity
  8
SB
100
AcDbLine
 10
331.3460608139517
 20
160.822477476859
 30
0.0
 11
332.0978149105804
 21
161.0960935915195
 31
0.0
  0
LINE
  5
1F16
330
1E
100
AcDbEntity
  8
SC
100
AcDbLine
 10
329.295665500717
 20
160.6082835006007
 30
0.0
 11
326.4336544444928
 21
161.1129332688989
 31
0.0
  0
LINE
  5
1F17
330
1E
100
AcDbEntity
  8
HO
100
AcDbLine
 10
321.0111675320261
 20
120.4260932999926
 30
0.0
 11
352.2089625421182
 21
109.0710245415803
 31
0.0
  0
LINE
  5
1F18
330
1E
100
AcDbEntity
  8
SC
100
AcDbLine
 10
343.7100980424967
 20
115.8357715595462
 30
0.0
 11
341.3501590535497
 21
109.3518924761234
 31
0.0
  0
LINE
  5
1F19
330
1E
100
AcDbEntity
  8
SB
100
AcDbLine
 10
348.1090346890086
 20
112.4255873445841
 30
0.0
 11
346.9119641873688
 21
109.1366631718334
 31
0.0
  0
LINE
  5
1F1A
330
1E
100
AcDbEntity
  8
SC
100
AcDbLine
 10
347.6607803309134
 20
113.3868719176678
 30
0.0
 11
345.950679614285
 21
108.6884088137382
 31
0.0
  0
ARC
  5
1F1B
330
1E
100
AcDbEntity
  8
SB
100
AcDbCircle
 10
335.1419231388909
 20
111.6115055563616
 30
0.0
 40
1.256666666666669
100
AcDbArc
 50
339.9999999999999
 51
46.22268392074453
  0
LINE
  5
1F1C
330
1E
100
AcDbEntity
  8
SB
100
AcDbLine
 10
339.3838838151099
 20
119.5919491989496
 30
0.0
 11
335.6216622385275
 21
109.2553303703046
 31
0.0
  0
LINE
  5
1F1D
330
1E
100
AcDbEntity
  8
SB
100
AcDbLine
 10
340.1356379117386
 20
119.3183330842891
 30
0.0
 11
336.3734163351562
 21
108.9817142556442
 31
0.0
  0
LINE
  5
1F1E
330
1E
100
AcDbEntity
  8
SB
100
AcDbLine
 10
340.8873920083672
 20
119.0447169696286
 30
0.0
 11
337.1251704317849
 21
108.7080981409837
 31
0.0
  0
ARC
  5
1F1F
330
1E
100
AcDbEntity
  8
SB
100
AcDbCircle
 10
338.8637611725901
 20
113.9282806103772
 30
0.0
 40
3.901666666666711
100
AcDbArc
 50
303.8790561276018
 51
16.12094387239763
  0
LINE
  5
1F20
330
1E
100
AcDbEntity
  8
SB
100
AcDbLine
 10
335.8600364871628
 20
120.8745247364208
 30
0.0
 11
332.0978149105804
 21
110.5379059077759
 31
0.0
  0
LINE
  5
1F21
330
1E
100
AcDbEntity
  8
SB
100
AcDbLine
 10
333.7419273639507
 20
123.2417200689116
 30
0.0
 11
328.9536453573913
 21
110.0860233779089
 31
0.0
  0
LINE
  5
1F22
330
1E
100
AcDbEntity
  8
SB
100
AcDbLine
 10
335.6213126055226
 20
122.5576797822603
 30
0.0
 11
330.8330305989632
 21
109.4019830912575
 31
0.0
  0
LINE
  5
1F23
330
1E
100
AcDbEntity
  8
SC
100
AcDbLine
 10
335.1514662951296
 20
122.7286898539231
 30
0.0
 11
330.3631842885702
 21
109.5729931629204
 31
0.0
  0
LINE
  5
1F24
330
1E
100
AcDbEntity
  8
SC
100
AcDbLine
 10
334.6816199847367
 20
122.899699925586
 30
0.0
 11
329.8933379781773
 21
109.7440032345833
 31
0.0
  0
LINE
  5
1F25
330
1E
100
AcDbEntity
  8
SC
100
AcDbLine
 10
334.2117736743437
 20
123.0707099972488
 30
0.0
 11
329.4234916677843
 21
109.9150133062461
 31
0.0
  0
LINE
  5
1F26
330
1E
100
AcDbEntity
  8
SB
100
AcDbLine
 10
345.950679614285
 20
108.6884088137382
 30
0.0
 11
341.675078189709
 21
110.2446004658701
 31
0.0
  0
LINE
  5
1F27
330
1E
100
AcDbEntity
  8
SC
100
AcDbLine
 10
346.9119641873688
 20
109.1366631718334
 30
0.0
 11
341.9315932972032
 21
110.9493699314596
 31
0.0
  0
LINE
  5
1F28
330
1E
100
AcDbEntity
  8
SB
100
AcDbLine
 10
346.9119641873688
 20
109.1366631718334
 30
0.0
 11
345.950679614285
 21
108.6884088137382
 31
0.0
  0
LINE
  5
1F29
330
1E
100
AcDbEntity
  8
SB
100
AcDbLine
 10
335.2247109019312
 20
110.3575688365062
 30
0.0
 11
332.4056330395736
 21
111.3836292664832
 31
0.0
  0
LINE
  5
1F2A
330
1E
100
AcDbEntity
  8
SB
100
AcDbLine
 10
340.2520664231356
 20
108.527761069714
 30
0.0
 11
337.432988560778
 21
109.553821499691
 31
0.0
  0
ARC
  5
1F2B
330
1E
100
AcDbEntity
  8
SB
100
AcDbCircle
 10
340.1692786600953
 20
109.7816977895694
 30
0.0
 40
1.256666666666669
100
AcDbArc
 50
339.9999999999999
 51
46.22268392074453
  0
LINE
  5
1F2C
330
1E
100
AcDbEntity
  8
SB
100
AcDbLine
 10
341.3501590535497
 20
109.3518924761234
 30
0.0
 11
340.2520664231357
 21
108.527761069714
 31
0.0
  0
LINE
  5
1F2D
330
1E
100
AcDbEntity
  8
SB
100
AcDbLine
 10
341.0387127527847
 20
110.6890540975215
 30
0.0
 11
338.2196348904269
 21
111.7151145274985
 31
0.0
  0
LINE
  5
1F2E
330
1E
100
AcDbEntity
  8
SB
100
AcDbLine
 10
336.3228035323452
 20
111.1817002429157
 30
0.0
 11
335.2247109019313
 21
110.3575688365062
 31
0.0
  0
LINE
  5
1F2F
330
1E
100
AcDbEntity
  8
SB
100
AcDbLine
 10
335.6216622385275
 20
109.2553303703047
 30
0.0
 11
337.1251704317849
 21
108.7080981409837
 31
0.0
  0
LINE
  5
1F30
330
1E
100
AcDbEntity
  8
SB
100
AcDbLine
 10
328.9536453573913
 20
110.0860233779089
 30
0.0
 11
330.8330305989632
 21
109.4019830912575
 31
0.0
  0
LINE
  5
1F31
330
1E
100
AcDbEntity
  8
SB
100
AcDbLine
 10
331.3460608139517
 20
110.8115220224364
 30
0.0
 11
332.0978149105804
 21
110.5379059077759
 31
0.0
  0
LINE
  5
1F32
330
1E
100
AcDbEntity
  8
SC
100
AcDbLine
 10
329.295665500717
 20
111.0257159986947
 30
0.0
 11
326.4336544444928
 21
110.5210662303965
 31
0.0
  0
LINE
  5
1F33
330
1E
100
AcDbEntity
  8
SB
100
AcDbLine
 10
343.3986517417318
 20
117.1729331809443
 30
0.0
 11
340.5795738793742
 21
118.1989936109213
 31
0.0
  0
LINE
  5
1F34
330
1E
100
AcDbEntity
  8
SB
100
AcDbLine
 10
342.6120054120828
 20
115.0116401531367
 30
0.0
 11
339.7929275497251
 21
116.0377005831137
 31
0.0
  0
LINE
  5
1F35
330
1E
100
AcDbEntity
  8
SB
100
AcDbLine
 10
347.6607803309134
 20
113.3868719176678
 30
0.0
 11
343.3851789063374
 21
114.9430635697997
 31
0.0
  0
LINE
  5
1F36
330
1E
100
AcDbEntity
  8
SC
100
AcDbLine
 10
348.1090346890086
 20
112.4255873445841
 30
0.0
 11
343.1286637988431
 21
114.2382941042102
 31
0.0
  0
LINE
  5
1F37
330
1E
100
AcDbEntity
  8
SB
100
AcDbLine
 10
348.1090346890086
 20
112.4255873445841
 30
0.0
 11
347.6607803309134
 21
113.3868719176678
 31
0.0
  0
ARC
  5
1F38
330
1E
100
AcDbEntity
  8
SB
100
AcDbCircle
 10
342.5292176490425
 20
116.2655768729922
 30
0.0
 40
1.256666666666669
100
AcDbArc
 50
273.7773160792558
 51
339.9999999999999
  0
LINE
  5
1F39
330
1E
100
AcDbEntity
  8
SB
100
AcDbLine
 10
343.7100980424967
 20
115.8357715595462
 30
0.0
 11
343.3986517417318
 21
117.1729331809443
 31
0.0
  0
LINE
  5
1F3A
330
1E
100
AcDbEntity
  8
SC
100
AcDbLine
 10
333.3999072206251
 20
122.3020274481257
 30
0.0
 11
331.5318621731527
 21
124.5282768445787
 31
0.0
  0
LINE
  5
1F3B
330
1E
100
AcDbEntity
  8
SB
100
AcDbLine
 10
333.7419273639507
 20
123.2417200689116
 30
0.0
 11
335.6213126055226
 21
122.5576797822603
 31
0.0
  0
LINE
  5
1F3C
330
1E
100
AcDbEntity
  8
SB
100
AcDbLine
 10
336.0113572315803
 20
112.5188618643137
 30
0.0
 11
333.1922793692225
 21
113.5449222942908
 31
0.0
  0
ARC
  5
1F3D
330
1E
100
AcDbEntity
  8
SB
100
AcDbCircle
 10
337.5018621278381
 20
118.0953846397844
 30
0.0
 40
1.256666666666669
100
AcDbArc
 50
273.7773160792558
 51
339.9999999999999
  0
LINE
  5
1F3E
330
1E
100
AcDbEntity
  8
SB
100
AcDbLine
 10
337.5846498908784
 20
116.8414479199289
 30
0.0
 11
334.7655720285207
 21
117.867508349906
 31
0.0
  0
ARC
  5
1F3F
330
1E
100
AcDbEntity
  8
SB
100
AcDbCircle
 10
333.8364056513857
 20
115.7580883771695
 30
0.0
 40
3.901666666666711
100
AcDbArc
 50
303.8790561276018
 51
16.12094387239763
  0
LINE
  5
1F40
330
1E
100
AcDbEntity
  8
SB
100
AcDbLine
 10
338.3712962205273
 20
119.0027409477366
 30
0.0
 11
335.5522183581696
 21
120.0288013777135
 31
0.0
  0
LINE
  5
1F41
330
1E
100
AcDbEntity
  8
SB
100
AcDbLine
 10
338.6827425212923
 20
117.6655793263385
 30
0.0
 11
338.3712962205274
 21
119.0027409477365
 31
0.0
  0
LINE
  5
1F42
330
1E
100
AcDbEntity
  8
SB
100
AcDbLine
 10
339.3838838151098
 20
119.5919491989497
 30
0.0
 11
340.8873920083672
 21
119.0447169696286
 31
0.0
  0
LINE
  5
1F43
330
1E
100
AcDbEntity
  8
SB
100
AcDbLine
 10
335.108282390534
 20
121.1481408510814
 30
0.0
 11
335.8600364871628
 21
120.8745247364208
 31
0.0
  0
LINE
  5
1F44
330
1E
100
AcDbEntity
  8
SA
100
AcDbLine
 10
328.5347345012475
 20
131.4592126122648
 30
0.0
 11
331.7225575351411
 21
131.1803142354722
 31
0.0
  0
ARC
  5
1F45
330
1E
100
AcDbEntity
  8
SA
100
AcDbCircle
 10
278.7249995966602
 20
135.8169997496477
 30
0.0
 40
50.0
100
AcDbArc
 50
4.999999999999813
 51
175.0000000000001
  0
ARC
  5
1F46
330
1E
100
AcDbEntity
  8
SA
100
AcDbCircle
 10
278.7249995966602
 20
135.8169997496477
 30
0.0
 40
54.0
100
AcDbArc
 50
106.9398272917239
 51
73.06017270827601
  0
LINE
  5
1F4E
330
1E
100
AcDbEntity
  8
HO
100
AcDbLine
 10
111.2249995966601
 20
193.9633667900742
 30
0.0
 11
131.2249995966601
 21
193.9633667900742
 31
0.0
  0
LINE
  5
1F4F
330
1E
100
AcDbEntity
  8
HO
100
AcDbLine
 10
121.2249995966601
 20
203.9633667900742
 30
0.0
 11
121.2249995966601
 21
176.8169997496476
 31
0.0
  0
LINE
  5
1F50
330
1E
100
AcDbEntity
  8
HO
100
AcDbLine
 10
146.2249995966601
 20
203.9633667900742
 30
0.0
 11
146.2249995966601
 21
176.8169997496476
 31
0.0
  0
CIRCLE
  5
1F51
330
1E
100
AcDbEntity
  8
SA
100
AcDbCircle
 10
146.2249995966601
 20
193.9633667900742
 30
0.0
 40
5.0
  0
LINE
  5
1F52
330
1E
100
AcDbEntity
  8
SA
100
AcDbLine
 10
142.2249995966601
 20
199.7633667900742
 30
0.0
 11
142.2249995966601
 21
196.9633667900742
 31
0.0
  0
LINE
  5
1F53
330
1E
100
AcDbEntity
  8
SA
100
AcDbLine
 10
150.2249995966601
 20
199.7633667900742
 30
0.0
 11
150.2249995966601
 21
196.9633667900742
 31
0.0
  0
LINE
  5
1F54
330
1E
100
AcDbEntity
  8
SA
100
AcDbLine
 10
158.7249995966601
 20
199.7633667900743
 30
0.0
 11
150.2249995966601
 21
199.7633667900743
 31
0.0
  0
LINE
  5
1F55
330
1E
100
AcDbEntity
  8
SA
100
AcDbLine
 10
142.2249995966601
 20
189.8169997496477
 30
0.0
 11
125.2249995966601
 21
189.8169997496477
 31
0.0
  0
LINE
  5
1F56
330
1E
100
AcDbEntity
  8
SA
100
AcDbLine
 10
142.2249995966601
 20
190.9633667900742
 30
0.0
 11
142.2249995966601
 21
185.8169997496476
 31
0.0
  0
LINE
  5
1F57
330
1E
100
AcDbEntity
  8
SA
100
AcDbLine
 10
150.2249995966601
 20
190.9633667900742
 30
0.0
 11
150.2249995966601
 21
185.8169997496476
 31
0.0
  0
ARC
  5
1F58
330
1E
100
AcDbEntity
  8
SA
100
AcDbCircle
 10
146.2249995966601
 20
185.8169997496476
 30
0.0
 40
4.0
100
AcDbArc
 50
180.0
 51
0.0
  0
LINE
  5
1F59
330
1E
100
AcDbEntity
  8
HA
100
AcDbLine
 10
142.2249995966601
 20
185.8169997496477
 30
0.0
 11
108.7249995966601
 21
185.8169997496477
 31
0.0
  0
CIRCLE
  5
1F5A
330
1E
100
AcDbEntity
  8
SB
100
AcDbCircle
 10
146.2249995966601
 20
193.9633667900742
 30
0.0
 40
4.25
  0
LINE
  5
1F5B
330
1E
100
AcDbEntity
  8
SB
100
AcDbLine
 10
146.2249995966601
 20
190.4633667900742
 30
0.0
 11
149.2560885099057
 21
192.2133667900742
 31
0.0
  0
LINE
  5
1F5C
330
1E
100
AcDbEntity
  8
SB
100
AcDbLine
 10
149.2560885099057
 20
192.2133667900742
 30
0.0
 11
149.2560885099057
 21
195.7133667900741
 31
0.0
  0
LINE
  5
1F5D
330
1E
100
AcDbEntity
  8
SB
100
AcDbLine
 10
146.2249995966601
 20
197.4633667900742
 30
0.0
 11
149.2560885099057
 21
195.7133667900741
 31
0.0
  0
LINE
  5
1F5E
330
1E
100
AcDbEntity
  8
SB
100
AcDbLine
 10
143.1939106834146
 20
192.2133667900742
 30
0.0
 11
143.1939106834146
 21
195.7133667900741
 31
0.0
  0
LINE
  5
1F5F
330
1E
100
AcDbEntity
  8
SB
100
AcDbLine
 10
146.2249995966601
 20
197.4633667900742
 30
0.0
 11
143.1939106834146
 21
195.7133667900741
 31
0.0
  0
LINE
  5
1F60
330
1E
100
AcDbEntity
  8
SB
100
AcDbLine
 10
146.2249995966601
 20
190.4633667900742
 30
0.0
 11
143.1939106834146
 21
192.2133667900742
 31
0.0
  0
CIRCLE
  5
1F61
330
1E
100
AcDbEntity
  8
SB
100
AcDbCircle
 10
121.2249995966601
 20
193.9633667900742
 30
0.0
 40
4.25
  0
ARC
  5
1F62
330
1E
100
AcDbEntity
  8
SA
100
AcDbCircle
 10
121.2249995966601
 20
185.8169997496476
 30
0.0
 40
4.0
100
AcDbArc
 50
180.0
 51
0.0
  0
CIRCLE
  5
1F63
330
1E
100
AcDbEntity
  8
SA
100
AcDbCircle
 10
121.2249995966601
 20
193.9633667900742
 30
0.0
 40
5.0
  0
LINE
  5
1F64
330
1E
100
AcDbEntity
  8
SB
100
AcDbLine
 10
124.2560885099057
 20
192.2133667900742
 30
0.0
 11
124.2560885099057
 21
195.7133667900741
 31
0.0
  0
LINE
  5
1F65
330
1E
100
AcDbEntity
  8
SB
100
AcDbLine
 10
118.1939106834146
 20
192.2133667900742
 30
0.0
 11
118.1939106834146
 21
195.7133667900741
 31
0.0
  0
LINE
  5
1F66
330
1E
100
AcDbEntity
  8
SA
100
AcDbLine
 10
125.2249995966602
 20
190.9633667900742
 30
0.0
 11
125.2249995966602
 21
185.8169997496476
 31
0.0
  0
LINE
  5
1F67
330
1E
100
AcDbEntity
  8
SB
100
AcDbLine
 10
121.2249995966601
 20
190.4633667900742
 30
0.0
 11
124.2560885099057
 21
192.2133667900742
 31
0.0
  0
LINE
  5
1F68
330
1E
100
AcDbEntity
  8
SB
100
AcDbLine
 10
121.2249995966601
 20
190.4633667900742
 30
0.0
 11
118.1939106834146
 21
192.2133667900742
 31
0.0
  0
LINE
  5
1F69
330
1E
100
AcDbEntity
  8
SA
100
AcDbLine
 10
125.2249995966602
 20
199.7633667900742
 30
0.0
 11
125.2249995966602
 21
196.9633667900742
 31
0.0
  0
LINE
  5
1F6A
330
1E
100
AcDbEntity
  8
SB
100
AcDbLine
 10
121.2249995966601
 20
197.4633667900742
 30
0.0
 11
124.2560885099057
 21
195.7133667900741
 31
0.0
  0
LINE
  5
1F6B
330
1E
100
AcDbEntity
  8
SB
100
AcDbLine
 10
121.2249995966601
 20
197.4633667900742
 30
0.0
 11
118.1939106834146
 21
195.7133667900741
 31
0.0
  0
LINE
  5
1F6C
330
1E
100
AcDbEntity
  8
SA
100
AcDbLine
 10
117.2249995966601
 20
190.9633667900742
 30
0.0
 11
117.2249995966601
 21
185.8169997496476
 31
0.0
  0
LINE
  5
1F6D
330
1E
100
AcDbEntity
  8
SA
100
AcDbLine
 10
117.2249995966601
 20
199.7633667900742
 30
0.0
 11
117.2249995966601
 21
196.9633667900742
 31
0.0
  0
LINE
  5
1F6E
330
1E
100
AcDbEntity
  8
SA
100
AcDbLine
 10
117.2249995966601
 20
199.7633667900742
 30
0.0
 11
108.7249995966601
 21
199.7633667900742
 31
0.0
  0
LINE
  5
1F6F
330
1E
100
AcDbEntity
  8
SA
100
AcDbLine
 10
117.2249995966601
 20
189.8169997496477
 30
0.0
 11
108.7249995966601
 21
189.8169997496477
 31
0.0
  0
LINE
  5
1F70
330
1E
100
AcDbEntity
  8
HO
100
AcDbLine
 10
136.2249995966601
 20
193.9633667900742
 30
0.0
 11
156.2249995966601
 21
193.9633667900742
 31
0.0
  0
LINE
  5
1F71
330
1E
100
AcDbEntity
  8
SA
100
AcDbLine
 10
142.2249995966601
 20
199.7633667900743
 30
0.0
 11
125.2249995966602
 21
199.7633667900742
 31
0.0
  0
LINE
  5
1F72
330
1E
100
AcDbEntity
  8
SA
100
AcDbLine
 10
150.2249995966601
 20
199.2633667900743
 30
0.0
 11
142.2249995966601
 21
199.2633667900742
 31
0.0
  0
LINE
  5
1F73
330
1E
100
AcDbEntity
  8
SA
100
AcDbLine
 10
150.2249995966601
 20
190.3169997496477
 30
0.0
 11
149.6461116098061
 21
190.3169997496477
 31
0.0
  0
LINE
  5
1F74
330
1E
100
AcDbEntity
  8
SA
100
AcDbLine
 10
117.8038875835142
 20
190.3169997496477
 30
0.0
 11
117.2249995966602
 21
190.3169997496477
 31
0.0
  0
LINE
  5
1F75
330
1E
100
AcDbEntity
  8
SA
100
AcDbLine
 10
125.2249995966602
 20
190.3169997496477
 30
0.0
 11
124.646111609806
 21
190.3169997496477
 31
0.0
  0
LINE
  5
1F76
330
1E
100
AcDbEntity
  8
SA
100
AcDbLine
 10
125.2249995966602
 20
199.2633667900742
 30
0.0
 11
117.2249995966601
 21
199.2633667900742
 31
0.0
  0
LINE
  5
1F77
330
1E
100
AcDbEntity
  8
SA
100
AcDbLine
 10
142.8038875835142
 20
190.3169997496477
 30
0.0
 11
142.2249995966601
 21
190.3169997496476
 31
0.0
  0
LINE
  5
1F78
330
1E
100
AcDbEntity
  8
SA
100
AcDbLine
 10
150.2249995966601
 20
189.3169997496477
 30
0.0
 11
148.0719628679891
 21
189.3169997496477
 31
0.0
  0
LINE
  5
1F79
330
1E
100
AcDbEntity
  8
SA
100
AcDbLine
 10
125.2249995966602
 20
189.3169997496477
 30
0.0
 11
123.0719628679892
 21
189.3169997496477
 31
0.0
  0
LINE
  5
1F7A
330
1E
100
AcDbEntity
  8
SA
100
AcDbLine
 10
144.3780363253312
 20
189.3169997496477
 30
0.0
 11
142.2249995966602
 21
189.3169997496477
 31
0.0
  0
LINE
  5
1F7B
330
1E
100
AcDbEntity
  8
SA
100
AcDbLine
 10
119.3780363253311
 20
189.3169997496477
 30
0.0
 11
117.2249995966602
 21
189.3169997496477
 31
0.0
  0
TEXT
  5
1F83
330
1E
100
AcDbEntity
  8
MO
100
AcDbText
 10
286.2547626224421
 20
144.466999778383
 30
0.0
 40
6.0
  1
A　φ
 50
42.50410078103731
  7
0
100
AcDbText
  0
LINE
  5
1F8E
330
1E
100
AcDbEntity
  8
SC
100
AcDbLine
 10
312.1619998448327
 20
175.3849997736347
 30
0.0
 11
326.3963137001249
 21
195.8394876159967
 31
0.0
  0
LINE
  5
1F8F
330
1E
100
AcDbEntity
  8
SC
100
AcDbLine
 10
326.3963137001249
 20
195.8394876159967
 30
0.0
 11
371.0499257357487
 21
195.8394876159967
 31
0.0
  0
TEXT
  5
1F90
330
1E
100
AcDbEntity
  8
MO
100
AcDbText
 10
328.7504467808026
 20
196.7202070914985
 30
0.0
 40
3.599999999999999
  1
ヒーター（C）
  7
0
100
AcDbText
  0
TEXT
  5
1F91
330
1E
100
AcDbEntity
  8
MO
100
AcDbText
 10
340.825926311865
 20
190.7689994314889
 30
0.0
 40
3.599999999999999
  1
ヒーターバンド
  7
0
100
AcDbText
  0
CIRCLE
  5
1F92
330
1E
100
AcDbEntity
  8
SC
100
AcDbCircle
 10
312.1619998448327
 20
175.3849997736347
 30
0.0
 40
0.4
  0
LWPOLYLINE
  5
1FA3
330
1E
100
AcDbEntity
  8
SC
100
AcDbPolyline
 90
        2
 70
     0
 43
0.0
 10
346.4984177801348
 20
116.4668188563146
 10
360.5350529583296
 20
149.6679469703877
1001
ACAD
1000
DSTYLE
1002
{
1070
   147
1040
0.09
1070
    40
1040
10.0
1070
    41
1040
0.25
1070
    42
1040
0.1
1070
    43
1040
0.6
1070
    44
1040
0.2
1070
    73
1070
     0
1070
    74
1070
     0
1070
    77
1070
     0
1070
   140
1040
0.3
1070
   172
1070
     1
1070
   179
1070
     1
1070
   271
1070
     0
1070
   272
1070
     0
1070
   279
1070
     2
1070
   340
1005
22
1002
}
  0
LINE
  5
1FA4
330
1E
100
AcDbEntity
  8
SC
100
AcDbLine
 10
360.5350529583296
 20
149.6679469703877
 30
0.0
 11
393.8880379081616
 21
149.6679469703877
 31
0.0
  0
TEXT
  5
1FA5
330
1E
100
AcDbEntity
  8
MO
100
AcDbText
 10
363.401979425362
 20
150.0929472585676
 30
0.0
 40
3.599999999999999
  1
ターミナル端子
  7
0
100
AcDbText
  0
TEXT
  5
1FA6
330
1E
100
AcDbEntity
  8
MO
100
AcDbText
 10
382.6754245064127
 20
145.1783470976926
 30
0.0
 40
3.599999999999999
  1
（D）
  7
0
100
AcDbText
  0
SOLID
  5
1FA7
330
1E
100
AcDbEntity
  8
SC
100
AcDbTrace
 10
346.8820596785291
 20
116.3042457807224
 30
0.0
 11
345.5229793265817
 21
114.1649674659487
 31
0.0
 12
346.1147758817404
 22
116.6293919319068
 32
0.0
 13
346.1147758817404
 23
116.6293919319068
 33
0.0
1001
ACAD
1000
DSTYLE
1002
{
1070
   147
1040
0.09
1070
    40
1040
10.0
1070
    41
1040
0.25
1070
    42
1040
0.1
1070
    43
1040
0.6
1070
    44
1040
0.2
1070
    73
1070
     0
1070
    74
1070
     0
1070
    77
1070
     0
1070
   140
1040
0.3
1070
   172
1070
     1
1070
   179
1070
     1
1070
   271
1070
     0
1070
   272
1070
     0
1070
   279
1070
     2
1070
   340
1005
22
1002
}
  0
LWPOLYLINE
  5
1FB1
330
1E
100
AcDbEntity
  8
SC
100
AcDbPolyline
 90
        2
 70
     0
 43
0.0
 10
260.8729173231054
 20
201.3440986163731
 10
266.1928780794476
 20
211.8923667533897
1001
ACAD
1000
DSTYLE
1002
{
1070
   147
1040
0.09
1070
    40
1040
10.0
1070
    41
1040
0.25
1070
    42
1040
0.1
1070
    43
1040
0.6
1070
    44
1040
0.2
1070
    73
1070
     0
1070
    74
1070
     0
1070
    77
1070
     0
1070
   140
1040
0.3
1070
   172
1070
     1
1070
   179
1070
     1
1070
   271
1070
     0
1070
   272
1070
     0
1070
   279
1070
     2
1070
   340
1005
22
1002
}
  0
LINE
  5
1FB2
330
1E
100
AcDbEntity
  8
SC
100
AcDbLine
 10
266.1928780794476
 20
211.8923667533897
 30
0.0
 11
304.2089999999999
 21
211.8923667533897
 31
0.0
  0
TEXT
  5
1FB3
330
1E
100
AcDbEntity
  8
MO
100
AcDbText
 10
270.7616390928956
 20
212.2212014535904
 30
0.0
 40
3.599999999999999
  1
キャップボルト
  7
0
100
AcDbText
  0
SOLID
  5
1FB4
330
1E
100
AcDbEntity
  8
SC
100
AcDbTrace
 10
261.2697059669358
 20
201.2169377606108
 30
0.0
 11
260.1099521885315
 21
198.9633667533896
 31
0.0
 12
260.4761286792748
 22
201.4712594721354
 32
0.0
 13
260.4761286792748
 23
201.4712594721354
 33
0.0
1001
ACAD
1000
DSTYLE
1002
{
1070
   147
1040
0.09
1070
    40
1040
10.0
1070
    41
1040
0.25
1070
    42
1040
0.1
1070
    43
1040
0.6
1070
    44
1040
0.2
1070
    73
1070
     0
1070
    74
1070
     0
1070
    77
1070
     0
1070
   140
1040
0.3
1070
   172
1070
     1
1070
   179
1070
     1
1070
   271
1070
     0
1070
   272
1070
     0
1070
   279
1070
     2
1070
   340
1005
22
1002
}
  0
ENDSEC
  0
SECTION
  2
OBJECTS
  0
DICTIONARY
  5
C
330
0
100
AcDbDictionary
281
     1
  3
ACAD_COLOR
350
1793
  3
ACAD_GROUP
350
D
  3
ACAD_LAYOUT
350
19
  3
ACAD_MATERIAL
350
1792
  3
ACAD_MLINESTYLE
350
16
  3
ACAD_PLOTSETTINGS
350
18
  3
ACAD_PLOTSTYLENAME
350
E
  3
ACAD_TABLESTYLE
350
17A5
  3
ACDBHEADERROUNDTRIPXREC
350
1FD2
  3
AcDbVariableDictionary
350
17B5
  0
DICTIONARY
  5
1793
102
{ACAD_REACTORS
330
C
102
}
330
C
100
AcDbDictionary
281
     1
  0
DICTIONARY
  5
D
102
{ACAD_REACTORS
330
C
102
}
330
C
100
AcDbDictionary
281
     1
  0
DICTIONARY
  5
19
102
{ACAD_REACTORS
330
C
102
}
330
C
100
AcDbDictionary
281
     1
  3
Model
350
21
  3
ﾚｲｱｳﾄ1
350
1D
  0
DICTIONARY
  5
1792
102
{ACAD_REACTORS
330
C
102
}
330
C
100
AcDbDictionary
281
     1
  0
DICTIONARY
  5
16
102
{ACAD_REACTORS
330
C
102
}
330
C
100
AcDbDictionary
281
     1
  3
Standard
350
17
  0
DICTIONARY
  5
18
102
{ACAD_REACTORS
330
C
102
}
330
C
100
AcDbDictionary
281
     1
  0
ACDBDICTIONARYWDFLT
  5
E
102
{ACAD_REACTORS
330
C
102
}
330
C
100
AcDbDictionary
281
     1
  3
Normal
350
F
100
AcDbDictionaryWithDefault
340
F
  0
DICTIONARY
  5
17A5
102
{ACAD_REACTORS
330
C
102
}
330
C
100
AcDbDictionary
281
     1
  3
Standard
350
17A6
  0
DICTIONARY
  5
1FD2
102
{ACAD_REACTORS
330
C
102
}
330
C
100
AcDbDictionary
281
     1
  3
COLORDICT
350
1FD4
  3
MATERIALDICT
350
1FD3
  0
DICTIONARY
  5
17B5
102
{ACAD_REACTORS
330
C
102
}
330
C
100
AcDbDictionary
281
     1
  3
CTABLESTYLE
350
17B6
  3
DIMASSOC
350
1FB7
  3
PROJECTNAME
350
1FB8
  0
LAYOUT
  5
21
102
{ACAD_XDICTIONARY
360
1FD7
102
}
102
{ACAD_REACTORS
330
19
102
}
330
19
100
AcDbPlotSettings
  1

  2
\\AISEI\FX DocuPrint 205
  4
A4
  6
HYOU
 40
4.900083065032958
 41
4.900057315826416
 42
4.90008544921875
 43
4.90008544921875
 44
210.0156707763672
 45
297.0106506347656
 46
-1.0
 47
10.0
 48
0.0
 49
0.0
140
0.0
141
0.0
142
1.0
143
1.483401617978499
 70
 11952
 72
     1
 73
     1
 74
     2
  7
monochrome.ctb
 75
     0
147
0.6741262702428131
148
0.0
149
0.0
100
AcDbLayout
  1
Model
 70
     1
 71
     0
 10
0.0
 20
0.0
 11
12.0
 21
9.0
 12
0.0
 22
0.0
 32
0.0
 14
0.0
 24
0.0
 34
0.0
 15
0.0
 25
0.0
 35
0.0
146
0.0
 13
0.0
 23
0.0
 33
0.0
 16
1.0
 26
0.0
 36
0.0
 17
0.0
 27
1.0
 37
0.0
 76
     0
330
1E
1001
ACAD_PSEXT
1000
FX DocuPrint 205
1000
FX DocuPrint 205
1000
USB001
1000

1070
     0
  0
LAYOUT
  5
1D
102
{ACAD_XDICTIONARY
360
1FD5
102
}
102
{ACAD_REACTORS
330
19
102
}
330
19
100
AcDbPlotSettings
  1

  2
EPSON LP-1500S
  4

  6

 40
0.0
 41
0.0
 42
0.0
 43
0.0
 44
0.0
 45
0.0
 46
0.0
 47
0.0
 48
0.0
 49
0.0
140
0.0
141
0.0
142
1.0
143
1.0
 70
   688
 72
     0
 73
     0
 74
     5
  7
monochrome.ctb
 75
    16
147
1.0
148
0.0
149
0.0
100
AcDbLayout
  1
ﾚｲｱｳﾄ1
 70
     0
 71
     1
 10
0.0
 20
0.0
 11
12.0
 21
9.0
 12
0.0
 22
0.0
 32
0.0
 14
1.000000000000000E+20
 24
1.000000000000000E+20
 34
1.000000000000000E+20
 15
-1.000000000000000E+20
 25
-1.000000000000000E+20
 35
-1.000000000000000E+20
146
0.0
 13
0.0
 23
0.0
 33
0.0
 16
1.0
 26
0.0
 36
0.0
 17
0.0
 27
1.0
 37
0.0
 76
     0
330
1A
  0
MLINESTYLE
  5
17
102
{ACAD_REACTORS
330
16
102
}
330
16
100
AcDbMlineStyle
  2
STANDARD
 70
     0
  3

 62
   256
 51
90.0
 52
90.0
 71
     2
 49
0.5
 62
   256
  6
BYLAYER
 49
-0.5
 62
   256
  6
BYLAYER
  0
ACDBPLACEHOLDER
  5
F
102
{ACAD_REACTORS
330
E
102
}
330
E
  0
ACAD_PROXY_OBJECT
  5
17A6
102
{ACAD_REACTORS
330
17A5
102
}
330
17A5
100
AcDbProxyObject
 90
      499
 91
      503
 95
       25
 70
     0
 93
     1841
310
4214DD185B99185C9928B81E85EB51B8AE3F2E07A17AD46E2B8FC02B5E8DC0F42B1CFD028000000C1008070000C3001FDFF8000000C1003FBFF000000182007F7FE00000030400FEFFC00000060801FDFF8000000C1003FBFF00000018200000000000000681FA0B0000001820100E000186003FBFF000000182007F7FE000
310
00030400FEFFC00000060801FDFF8000000C1003FBFF000000182007F7FE000000304000AD7A3703D0AC73F4160000003040201C00030C007F7FE00000030400FEFFC00000060801FDFF8000000C1003FBFF000000182007F7FE00000030400FEFFC000000608000
340
11
340
11
340
11
 94
        0
1001
ACAD
1000
AcRTDxfName
1000
TABLESTYLE
  0
XRECORD
  5
1FD4
102
{ACAD_REACTORS
330
1FD2
102
}
330
1FD2
100
AcDbXrecord
280
     1
340
1793
  0
XRECORD
  5
1FD3
102
{ACAD_REACTORS
330
1FD2
102
}
330
1FD2
100
AcDbXrecord
280
     1
340
1792
  0
DICTIONARYVAR
  5
17B6
102
{ACAD_REACTORS
330
17B5
102
}
330
17B5
100
DictionaryVariables
280
     0
  1
STANDARD
  0
DICTIONARYVAR
  5
1FB7
102
{ACAD_REACTORS
330
17B5
102
}
330
17B5
100
DictionaryVariables
280
     0
  1
1
  0
DICTIONARYVAR
  5
1FB8
102
{ACAD_REACTORS
330
17B5
102
}
330
17B5
100
DictionaryVariables
280
     0
  1

  0
DICTIONARY
  5
1FD7
330
21
100
AcDbDictionary
280
     1
281
     1
  3
ACAD_XREC_ROUNDTRIP
360
1FD8
  0
DICTIONARY
  5
1FD5
330
1D
100
AcDbDictionary
280
     1
281
     1
  3
ACAD_XREC_ROUNDTRIP
360
1FD6
  0
XRECORD
  5
1FD8
102
{ACAD_REACTORS
330
1FD7
102
}
330
1FD7
100
AcDbXrecord
280
     1
102
SHADEPLOT
 70
     0
102
SHADEPLOTRESLEVEL
 70
     2
102
SHADEPLOTCUSTOMDPI
 70
   300
  0
XRECORD
  5
1FD6
102
{ACAD_REACTORS
330
1FD5
102
}
330
1FD5
100
AcDbXrecord
280
     1
102
SHADEPLOT
 70
     0
102
SHADEPLOTRESLEVEL
 70
     2
102
SHADEPLOTCUSTOMDPI
 70
   300
  0
ENDSEC
  0
EOF
