  0
SECTION
  2
HEADER
  9
$ACADVER
  1
AC1015
  9
$ACADMAINTVER
 70
    20
  9
$DWGCODEPAGE
  3
ANSI_932
  9
$INSBASE
 10
0.0
 20
0.0
 30
0.0
  9
$EXTMIN
 10
3.191529301916716
 20
2.71005318489631
 30
-0.0000000000000053
  9
$EXTMAX
 10
402.3889169730118
 20
294.199310990981
 30
0.0000000000000099
  9
$LIMMIN
 10
0.0
 20
0.0
  9
$LIMMAX
 10
420.0
 20
297.0
  9
$ORTHOMODE
 70
     1
  9
$REGENMODE
 70
     1
  9
$FILLMODE
 70
     1
  9
$QTEXTMODE
 70
     0
  9
$MIRRTEXT
 70
     1
  9
$LTSCALE
 40
12.0
  9
$ATTMODE
 70
     1
  9
$TEXTSIZE
 40
10.0
  9
$TRACEWID
 40
0.3
  9
$TEXTSTYLE
  7
0
  9
$CLAYER
  8
SC
  9
$CELTYPE
  6
ByLayer
  9
$CECOLOR
 62
   256
  9
$CELTSCALE
 40
1.0
  9
$DISPSILH
 70
     0
  9
$DIMSCALE
 40
1.0
  9
$DIMASZ
 40
2.0
  9
$DIMEXO
 40
0.0625
  9
$DIMDLI
 40
0.38
  9
$DIMRND
 40
0.0
  9
$DIMDLE
 40
0.0
  9
$DIMEXE
 40
0.18
  9
$DIMTP
 40
0.0
  9
$DIMTM
 40
0.0
  9
$DIMTXT
 40
2.0
  9
$DIMCEN
 40
0.09
  9
$DIMTSZ
 40
0.0
  9
$DIMTOL
 70
     0
  9
$DIMLIM
 70
     0
  9
$DIMTIH
 70
     1
  9
$DIMTOH
 70
     1
  9
$DIMSE1
 70
     0
  9
$DIMSE2
 70
     0
  9
$DIMTAD
 70
     0
  9
$DIMZIN
 70
     0
  9
$DIMBLK
  1

  9
$DIMASO
 70
     1
  9
$DIMSHO
 70
     0
  9
$DIMPOST
  1

  9
$DIMAPOST
  1

  9
$DIMALT
 70
     0
  9
$DIMALTD
 70
     2
  9
$DIMALTF
 40
25.4
  9
$DIMLFAC
 40
1.0
  9
$DIMTOFL
 70
     0
  9
$DIMTVP
 40
0.0
  9
$DIMTIX
 70
     0
  9
$DIMSOXD
 70
     0
  9
$DIMSAH
 70
     0
  9
$DIMBLK1
  1

  9
$DIMBLK2
  1

  9
$DIMSTYLE
  2
Standard
  9
$DIMCLRD
 70
     0
  9
$DIMCLRE
 70
     0
  9
$DIMCLRT
 70
     0
  9
$DIMTFAC
 40
1.0
  9
$DIMGAP
 40
0.09
  9
$DIMJUST
 70
     0
  9
$DIMSD1
 70
     0
  9
$DIMSD2
 70
     0
  9
$DIMTOLJ
 70
     1
  9
$DIMTZIN
 70
     0
  9
$DIMALTZ
 70
     0
  9
$DIMALTTZ
 70
     0
  9
$DIMUPT
 70
     0
  9
$DIMDEC
 70
     4
  9
$DIMTDEC
 70
     4
  9
$DIMALTU
 70
     2
  9
$DIMALTTD
 70
     2
  9
$DIMTXSTY
  7
STANDARD
  9
$DIMAUNIT
 70
     0
  9
$DIMADEC
 70
     0
  9
$DIMALTRND
 40
0.0
  9
$DIMAZIN
 70
     0
  9
$DIMDSEP
 70
    46
  9
$DIMATFIT
 70
     3
  9
$DIMFRAC
 70
     0
  9
$DIMLDRBLK
  1

  9
$DIMLUNIT
 70
     2
  9
$DIMLWD
 70
    -2
  9
$DIMLWE
 70
    -2
  9
$DIMTMOVE
 70
     0
  9
$LUNITS
 70
     2
  9
$LUPREC
 70
     4
  9
$SKETCHINC
 40
0.1
  9
$FILLETRAD
 40
0.0
  9
$AUNITS
 70
     0
  9
$AUPREC
 70
     1
  9
$MENU
  1
ACAD
  9
$ELEVATION
 40
0.0
  9
$PELEVATION
 40
0.0
  9
$THICKNESS
 40
0.0
  9
$LIMCHECK
 70
     0
  9
$CHAMFERA
 40
0.0
  9
$CHAMFERB
 40
0.0
  9
$CHAMFERC
 40
0.0
  9
$CHAMFERD
 40
0.0
  9
$SKPOLY
 70
     0
  9
$TDCREATE
 40
2450808.702418171
  9
$TDUCREATE
 40
2450808.327418172
  9
$TDUPDATE
 40
2456199.641176748
  9
$TDUUPDATE
 40
2456199.266176747
  9
$TDINDWG
 40
1.7144545139
  9
$TDUSRTIMER
 40
1.7144545139
  9
$USRTIMER
 70
     1
  9
$ANGBASE
 50
0.0
  9
$ANGDIR
 70
     0
  9
$PDMODE
 70
     0
  9
$PDSIZE
 40
0.0
  9
$PLINEWID
 40
1.0
  9
$SPLFRAME
 70
     0
  9
$SPLINETYPE
 70
     6
  9
$SPLINESEGS
 70
     8
  9
$HANDSEED
  5
21CD
  9
$SURFTAB1
 70
     6
  9
$SURFTAB2
 70
     6
  9
$SURFTYPE
 70
     6
  9
$SURFU
 70
     6
  9
$SURFV
 70
     6
  9
$UCSBASE
  2

  9
$UCSNAME
  2

  9
$UCSORG
 10
0.0
 20
0.0
 30
0.0
  9
$UCSXDIR
 10
1.0
 20
0.0
 30
0.0
  9
$UCSYDIR
 10
0.0
 20
1.0
 30
0.0
  9
$UCSORTHOREF
  2

  9
$UCSORTHOVIEW
 70
     0
  9
$UCSORGTOP
 10
0.0
 20
0.0
 30
0.0
  9
$UCSORGBOTTOM
 10
0.0
 20
0.0
 30
0.0
  9
$UCSORGLEFT
 10
0.0
 20
0.0
 30
0.0
  9
$UCSORGRIGHT
 10
0.0
 20
0.0
 30
0.0
  9
$UCSORGFRONT
 10
0.0
 20
0.0
 30
0.0
  9
$UCSORGBACK
 10
0.0
 20
0.0
 30
0.0
  9
$PUCSBASE
  2

  9
$PUCSNAME
  2

  9
$PUCSORG
 10
0.0
 20
0.0
 30
0.0
  9
$PUCSXDIR
 10
1.0
 20
0.0
 30
0.0
  9
$PUCSYDIR
 10
0.0
 20
1.0
 30
0.0
  9
$PUCSORTHOREF
  2

  9
$PUCSORTHOVIEW
 70
     0
  9
$PUCSORGTOP
 10
0.0
 20
0.0
 30
0.0
  9
$PUCSORGBOTTOM
 10
0.0
 20
0.0
 30
0.0
  9
$PUCSORGLEFT
 10
0.0
 20
0.0
 30
0.0
  9
$PUCSORGRIGHT
 10
0.0
 20
0.0
 30
0.0
  9
$PUCSORGFRONT
 10
0.0
 20
0.0
 30
0.0
  9
$PUCSORGBACK
 10
0.0
 20
0.0
 30
0.0
  9
$USERI1
 70
     0
  9
$USERI2
 70
     0
  9
$USERI3
 70
     0
  9
$USERI4
 70
     0
  9
$USERI5
 70
     0
  9
$USERR1
 40
0.0
  9
$USERR2
 40
0.0
  9
$USERR3
 40
0.0
  9
$USERR4
 40
0.0
  9
$USERR5
 40
0.0
  9
$WORLDVIEW
 70
     1
  9
$SHADEDGE
 70
     3
  9
$SHADEDIF
 70
    70
  9
$TILEMODE
 70
     1
  9
$MAXACTVP
 70
    16
  9
$PINSBASE
 10
0.0
 20
0.0
 30
0.0
  9
$PLIMCHECK
 70
     0
  9
$PEXTMIN
 10
1.000000000000000E+20
 20
1.000000000000000E+20
 30
1.000000000000000E+20
  9
$PEXTMAX
 10
-1.000000000000000E+20
 20
-1.000000000000000E+20
 30
-1.000000000000000E+20
  9
$PLIMMIN
 10
0.0
 20
0.0
  9
$PLIMMAX
 10
12.0
 20
9.0
  9
$UNITMODE
 70
     0
  9
$VISRETAIN
 70
     0
  9
$PLINEGEN
 70
     0
  9
$PSLTSCALE
 70
     0
  9
$TREEDEPTH
 70
  3020
  9
$CMLSTYLE
  2
Standard
  9
$CMLJUST
 70
     0
  9
$CMLSCALE
 40
1.0
  9
$PROXYGRAPHICS
 70
     1
  9
$MEASUREMENT
 70
     0
  9
$CELWEIGHT
370
    -1
  9
$ENDCAPS
280
     0
  9
$JOINSTYLE
280
     0
  9
$LWDISPLAY
290
     0
  9
$INSUNITS
 70
     0
  9
$HYPERLINKBASE
  1

  9
$STYLESHEET
  1
monochrome.ctb
  9
$XEDIT
290
     1
  9
$CEPSNTYPE
380
     0
  9
$PSTYLEMODE
290
     1
  9
$FINGERPRINTGUID
  2
{51BC8342-4694-11D4-A1F9-0060672295C7}
  9
$VERSIONGUID
  2
{7AE6AE1D-49EA-4B02-B242-FFAB868A1974}
  9
$EXTNAMES
290
     1
  9
$PSVPSCALE
 40
0.0
  9
$OLESTARTUP
290
     0
  0
ENDSEC
  0
SECTION
  2
CLASSES
  0
CLASS
  1
ACDBDICTIONARYWDFLT
  2
AcDbDictionaryWithDefault
  3
ObjectDBX Classes
 90
        0
280
     0
281
     0
  0
CLASS
  1
ACDBPLACEHOLDER
  2
AcDbPlaceHolder
  3
ObjectDBX Classes
 90
        0
280
     0
281
     0
  0
CLASS
  1
LAYOUT
  2
AcDbLayout
  3
ObjectDBX Classes
 90
        0
280
     0
281
     0
  0
CLASS
  1
TABLESTYLE
  2
AcDbTableStyle
  3
ObjectDBX Classes
 90
     2047
280
     0
281
     0
  0
CLASS
  1
DICTIONARYVAR
  2
AcDbDictionaryVar
  3
ObjectDBX Classes
 90
        0
280
     0
281
     0
  0
ENDSEC
  0
SECTION
  2
TABLES
  0
TABLE
  2
VPORT
  5
8
330
0
100
AcDbSymbolTable
 70
    29
  0
VPORT
  5
21C5
330
8
100
AcDbSymbolTableRecord
100
AcDbViewportTableRecord
  2
*Active
 70
     0
 10
0.0
 20
0.0
 11
1.0
 21
1.0
 12
210.0
 22
148.5
 13
0.0
 23
0.0
 14
0.001
 24
0.001
 15
10.0
 25
10.0
 16
0.0
 26
0.0
 36
1.0
 17
0.0
 27
0.0
 37
0.0
 40
300.6
 41
2.417004048582995
 42
50.0
 43
0.0
 44
0.0
 50
0.0
 51
0.0
 71
     0
 72
  2000
 73
     1
 74
     0
 75
     1
 76
     1
 77
     0
 78
     2
281
     0
 65
     1
110
0.0
120
0.0
130
0.0
111
1.0
121
0.0
131
0.0
112
0.0
122
1.0
132
0.0
 79
     0
146
0.0
  0
ENDTAB
  0
TABLE
  2
LTYPE
  5
5
330
0
100
AcDbSymbolTable
 70
     3
  0
LTYPE
  5
13
330
5
100
AcDbSymbolTableRecord
100
AcDbLinetypeTableRecord
  2
ByBlock
 70
     0
  3

 72
    65
 73
     0
 40
0.0
  0
LTYPE
  5
14
330
5
100
AcDbSymbolTableRecord
100
AcDbLinetypeTableRecord
  2
ByLayer
 70
     0
  3

 72
    65
 73
     0
 40
0.0
  0
LTYPE
  5
15
330
5
100
AcDbSymbolTableRecord
100
AcDbLinetypeTableRecord
  2
CONTINUOUS
 70
     0
  3
実線
 72
    65
 73
     0
 40
0.0
  0
LTYPE
  5
23
330
5
100
AcDbSymbolTableRecord
100
AcDbLinetypeTableRecord
  2
CENTER
 70
     0
  3
____ _ ____ _ ____ _ ____ _ ____ _ ____ _ ____
 72
    65
 73
     4
 40
2.0
 49
1.25
 74
     0
 49
-0.25
 74
     0
 49
0.25
 74
     0
 49
-0.25
 74
     0
  0
LTYPE
  5
24
330
5
100
AcDbSymbolTableRecord
100
AcDbLinetypeTableRecord
  2
HIDDEN
 70
     0
  3
_ _ _ _ _ _ _ _ _ _ _ _ _ _ _ _ _ _ _ _ _ _ _
 72
    65
 73
     2
 40
0.375
 49
0.25
 74
     0
 49
-0.125
 74
     0
  0
ENDTAB
  0
TABLE
  2
LAYER
  5
2
330
0
100
AcDbSymbolTable
 70
     9
  0
LAYER
  5
10
330
2
100
AcDbSymbolTableRecord
100
AcDbLayerTableRecord
  2
0
 70
     0
 62
     7
  6
CONTINUOUS
370
    -3
390
F
  0
LAYER
  5
28
330
2
100
AcDbSymbolTableRecord
100
AcDbLayerTableRecord
  2
HO
 70
     0
 62
     2
  6
CENTER
370
    13
390
F
  0
LAYER
  5
29
330
2
100
AcDbSymbolTableRecord
100
AcDbLayerTableRecord
  2
HA
 70
     0
 62
     4
  6
HIDDEN
370
    13
390
F
  0
LAYER
  5
2A
330
2
100
AcDbSymbolTableRecord
100
AcDbLayerTableRecord
  2
SB
 70
     0
 62
     1
  6
CONTINUOUS
370
    20
390
F
  0
LAYER
  5
2B
330
2
100
AcDbSymbolTableRecord
100
AcDbLayerTableRecord
  2
SA
 70
     0
 62
     7
  6
CONTINUOUS
370
    30
390
F
  0
LAYER
  5
2C
330
2
100
AcDbSymbolTableRecord
100
AcDbLayerTableRecord
  2
MO
 70
     0
 62
     3
  6
CONTINUOUS
370
    20
390
F
  0
LAYER
  5
2D
330
2
100
AcDbSymbolTableRecord
100
AcDbLayerTableRecord
  2
SC
 70
     0
 62
     6
  6
CONTINUOUS
370
    13
390
F
  0
LAYER
  5
2E
330
2
100
AcDbSymbolTableRecord
100
AcDbLayerTableRecord
  2
DEFPOINTS
 70
     0
 62
     7
  6
CONTINUOUS
290
     0
370
    -3
390
F
  0
LAYER
  5
1397
330
2
100
AcDbSymbolTableRecord
100
AcDbLayerTableRecord
  2
sd
 70
     0
 62
     1
  6
CONTINUOUS
370
    20
390
F
  0
ENDTAB
  0
TABLE
  2
STYLE
  5
3
330
0
100
AcDbSymbolTable
 70
     2
  0
STYLE
  5
11
330
3
100
AcDbSymbolTableRecord
100
AcDbTextStyleTableRecord
  2
STANDARD
 70
     0
 40
0.0
 41
1.0
 50
0.0
 71
     0
 42
0.2
  3
TXT
  4

  0
STYLE
  5
22
330
3
100
AcDbSymbolTableRecord
100
AcDbTextStyleTableRecord
  2
0
 70
     0
 40
0.0
 41
1.0
 50
0.0
 71
     0
 42
10.0
  3
SIMPLEX
  4
BIGFONT
  0
ENDTAB
  0
TABLE
  2
VIEW
  5
6
330
0
100
AcDbSymbolTable
 70
     1
  0
VIEW
  5
25
330
6
100
AcDbSymbolTableRecord
100
AcDbViewTableRecord
  2
HYOU
 70
     0
 40
162.519
 10
329.94
 20
84.5855
 41
158.206
 11
0.0
 21
0.0
 31
1.0
 12
0.0
 22
0.0
 32
0.0
 42
0.0
 43
0.0
 44
0.0
 50
0.0
 71
     0
281
     0
 72
     0
  0
ENDTAB
  0
TABLE
  2
UCS
  5
7
330
0
100
AcDbSymbolTable
 70
     0
  0
ENDTAB
  0
TABLE
  2
APPID
  5
9
330
0
100
AcDbSymbolTable
 70
     2
  0
APPID
  5
12
330
9
100
AcDbSymbolTableRecord
100
AcDbRegAppTableRecord
  2
ACAD
 70
     0
  0
APPID
  5
17B3
330
9
100
AcDbSymbolTableRecord
100
AcDbRegAppTableRecord
  2
ACAD_PSEXT
 70
     0
  0
ENDTAB
  0
TABLE
  2
DIMSTYLE
  5
A
330
0
100
AcDbSymbolTable
 70
     1
100
AcDbDimStyleTable
 71
     1
340
3C3
  0
DIMSTYLE
105
3C3
330
A
100
AcDbSymbolTableRecord
100
AcDbDimStyleTableRecord
  2
Standard
 70
     0
 41
2.0
140
2.0
340
11
  0
ENDTAB
  0
TABLE
  2
BLOCK_RECORD
  5
1
330
0
100
AcDbSymbolTable
 70
    21
  0
BLOCK_RECORD
  5
1E
330
1
100
AcDbSymbolTableRecord
100
AcDbBlockTableRecord
  2
*Model_Space
340
21
  0
BLOCK_RECORD
  5
1A
330
1
100
AcDbSymbolTableRecord
100
AcDbBlockTableRecord
  2
*Paper_Space
340
1D
  0
BLOCK_RECORD
  5
1C97
330
1
100
AcDbSymbolTableRecord
100
AcDbBlockTableRecord
  2
_Origin
340
0
  0
BLOCK_RECORD
  5
1C9C
330
1
100
AcDbSymbolTableRecord
100
AcDbBlockTableRecord
  2
*D1
340
0
  0
BLOCK_RECORD
  5
1FDC
330
1
100
AcDbSymbolTableRecord
100
AcDbBlockTableRecord
  2
*D3
340
0
  0
BLOCK_RECORD
  5
2037
330
1
100
AcDbSymbolTableRecord
100
AcDbBlockTableRecord
  2
*D13
340
0
  0
ENDTAB
  0
ENDSEC
  0
SECTION
  2
BLOCKS
  0
BLOCK
  5
31
330
1E
100
AcDbEntity
  8
0
100
AcDbBlockBegin
  2
*Model_Space
 70
     0
 10
0.0
 20
0.0
 30
0.0
  3
*Model_Space
  1

  0
ENDBLK
  5
32
330
1E
100
AcDbEntity
  8
0
100
AcDbBlockEnd
  0
BLOCK
  5
2F
330
1A
100
AcDbEntity
 67
     1
  8
0
100
AcDbBlockBegin
  2
*Paper_Space
 70
     0
 10
0.0
 20
0.0
 30
0.0
  3
*Paper_Space
  1

  0
ENDBLK
  5
30
330
1A
100
AcDbEntity
 67
     1
  8
0
100
AcDbBlockEnd
  0
BLOCK
  5
1C98
330
1C97
100
AcDbEntity
  8
0
100
AcDbBlockBegin
  2
_Origin
 70
     0
 10
0.0
 20
0.0
 30
0.0
  3
_Origin
  1

  0
CIRCLE
  5
1C99
330
1C97
100
AcDbEntity
  8
0
  6
ByBlock
 62
     0
370
    -2
100
AcDbCircle
 10
0.0
 20
0.0
 30
0.0
 40
0.5
  0
LINE
  5
1C9A
330
1C97
100
AcDbEntity
  8
0
  6
ByBlock
 62
     0
370
    -2
100
AcDbLine
 10
0.0
 20
0.0
 30
0.0
 11
-1.0
 21
0.0
 31
0.0
  0
ENDBLK
  5
1C9B
330
1C97
100
AcDbEntity
  8
0
100
AcDbBlockEnd
  0
BLOCK
  5
1C9D
330
1C9C
100
AcDbEntity
  8
0
100
AcDbBlockBegin
  2
*D1
 70
     1
 10
0.0
 20
0.0
 30
0.0
  3
*D1
  1

  0
LINE
  5
1C9E
330
1C9C
100
AcDbEntity
  8
SC
 62
     0
370
    -2
100
AcDbLine
 10
194.923
 20
138.5605
 30
0.0
 11
194.923
 21
121.7510002101738
 31
0.0
  0
LINE
  5
1C9F
330
1C9C
100
AcDbEntity
  8
SC
 62
     0
370
    -2
100
AcDbLine
 10
219.923
 20
138.5902394739349
 30
0.0
 11
219.923
 21
121.7510002101738
 31
0.0
  0
LINE
  5
1CA0
330
1C9C
100
AcDbEntity
  8
SC
 62
     0
370
    -2
100
AcDbLine
 10
196.923
 20
121.9310002101738
 30
0.0
 11
217.923
 21
121.9310002101738
 31
0.0
  0
SOLID
  5
1CA1
330
1C9C
100
AcDbEntity
  8
SC
 62
     0
100
AcDbTrace
 10
196.923
 20
122.2643335435071
 30
0.0
 11
196.923
 21
121.5976668768405
 31
0.0
 12
194.923
 22
121.9310002101738
 32
0.0
 13
194.923
 23
121.9310002101738
 33
0.0
  0
SOLID
  5
1CA2
330
1C9C
100
AcDbEntity
  8
SC
 62
     0
100
AcDbTrace
 10
217.923
 20
122.2643335435071
 30
0.0
 11
217.923
 21
121.5976668768405
 31
0.0
 12
219.923
 22
121.9310002101738
 32
0.0
 13
219.923
 23
121.9310002101738
 33
0.0
  0
MTEXT
  5
1CA3
330
1C9C
100
AcDbEntity
  8
SC
 62
     0
100
AcDbMText
 10
207.423
 20
124.0210002101738
 30
0.0
 40
4.0
 41
0.0
 71
     5
 72
     1
  1
\A1;（25）
  7
0
 73
     1
 44
1.0
1001
ACAD
1000
MTEXTBEGIN
1070
    73
1070
     1
1070
    44
1040
1.0
1070
    74
1070
     0
1000
MTEXTEND
  0
POINT
  5
1CA4
330
1C9C
100
AcDbEntity
  8
DEFPOINTS
 62
     0
100
AcDbPoint
 10
194.923
 20
138.623
 30
0.0
  0
POINT
  5
1CA5
330
1C9C
100
AcDbEntity
  8
DEFPOINTS
 62
     0
100
AcDbPoint
 10
219.923
 20
138.6527394739349
 30
0.0
  0
POINT
  5
1CA6
330
1C9C
100
AcDbEntity
  8
DEFPOINTS
 62
     0
100
AcDbPoint
 10
219.923
 20
121.9310002101738
 30
0.0
  0
ENDBLK
  5
1CA7
330
1C9C
100
AcDbEntity
  8
0
100
AcDbBlockEnd
  0
BLOCK
  5
1FE7
330
1FDC
100
AcDbEntity
  8
0
100
AcDbBlockBegin
  2
*D3
 70
     1
 10
0.0
 20
0.0
 30
0.0
  3
*D3
  1

  0
LINE
  5
1FE9
330
1FDC
100
AcDbEntity
  8
SC
 62
     0
370
    -2
100
AcDbLine
 10
222.0422589254633
 20
146.4825000478688
 30
0.0
 11
222.0422589254633
 21
129.6730002580426
 31
0.0
  0
LINE
  5
1FEA
330
1FDC
100
AcDbEntity
  8
SC
 62
     0
370
    -2
100
AcDbLine
 10
247.0422589254633
 20
146.5122395218037
 30
0.0
 11
247.0422589254633
 21
129.6730002580426
 31
0.0
  0
LINE
  5
1FEB
330
1FDC
100
AcDbEntity
  8
SC
 62
     0
370
    -2
100
AcDbLine
 10
224.0422589254633
 20
129.8530002580426
 30
0.0
 11
227.7855922587966
 21
129.8530002580426
 31
0.0
  0
LINE
  5
1FEC
330
1FDC
100
AcDbEntity
  8
SC
 62
     0
370
    -2
100
AcDbLine
 10
245.0422589254633
 20
129.8530002580426
 30
0.0
 11
241.2989255921299
 21
129.8530002580426
 31
0.0
  0
SOLID
  5
1FED
330
1FDC
100
AcDbEntity
  8
SC
 62
     0
100
AcDbTrace
 10
224.0422589254633
 20
130.186333591376
 30
0.0
 11
224.0422589254633
 21
129.5196669247093
 31
0.0
 12
222.0422589254633
 22
129.8530002580426
 32
0.0
 13
222.0422589254633
 23
129.8530002580426
 33
0.0
  0
SOLID
  5
1FEE
330
1FDC
100
AcDbEntity
  8
SC
 62
     0
100
AcDbTrace
 10
245.0422589254633
 20
130.186333591376
 30
0.0
 11
245.0422589254633
 21
129.5196669247093
 31
0.0
 12
247.0422589254633
 22
129.8530002580426
 32
0.0
 13
247.0422589254633
 23
129.8530002580426
 33
0.0
  0
MTEXT
  5
1FEF
330
1FDC
100
AcDbEntity
  8
SC
 62
     0
100
AcDbMText
 10
234.5422589254633
 20
129.8530002580426
 30
0.0
 40
4.0
 41
0.0
 71
     5
 72
     1
  1
\A1;（25）
 73
     1
 44
1.0
1001
ACAD
1000
MTEXTBEGIN
1070
    73
1070
     1
1070
    44
1040
1.0
1070
    74
1070
     0
1000
MTEXTEND
  0
POINT
  5
1FF0
330
1FDC
100
AcDbEntity
  8
DEFPOINTS
 62
     0
100
AcDbPoint
 10
222.0422589254633
 20
146.5450000478688
 30
0.0
  0
POINT
  5
1FF1
330
1FDC
100
AcDbEntity
  8
DEFPOINTS
 62
     0
100
AcDbPoint
 10
247.0422589254633
 20
146.5747395218038
 30
0.0
  0
POINT
  5
1FF2
330
1FDC
100
AcDbEntity
  8
DEFPOINTS
 62
     0
100
AcDbPoint
 10
247.0422589254633
 20
129.8530002580426
 30
0.0
  0
ENDBLK
  5
1FE8
330
1FDC
100
AcDbEntity
  8
0
100
AcDbBlockEnd
  0
BLOCK
  5
2042
330
2037
100
AcDbEntity
  8
0
100
AcDbBlockBegin
  2
*D13
 70
     1
 10
0.0
 20
0.0
 30
0.0
  3
*D13
  1

  0
LINE
  5
2038
330
2037
100
AcDbEntity
  8
SC
 62
     0
370
    -2
100
AcDbLine
 10
222.0422589254633
 20
146.4825000478688
 30
0.0
 11
222.0422589254633
 21
129.6730002580426
 31
0.0
  0
LINE
  5
2039
330
2037
100
AcDbEntity
  8
SC
 62
     0
370
    -2
100
AcDbLine
 10
247.0422589254633
 20
146.4825000478688
 30
0.0
 11
247.0422589254633
 21
129.6730002580426
 31
0.0
  0
LINE
  5
203A
330
2037
100
AcDbEntity
  8
SC
 62
     0
370
    -2
100
AcDbLine
 10
224.0422589254633
 20
129.8530002580426
 30
0.0
 11
229.1189255921299
 21
129.8530002580426
 31
0.0
  0
LINE
  5
203B
330
2037
100
AcDbEntity
  8
SC
 62
     0
370
    -2
100
AcDbLine
 10
245.0422589254633
 20
129.8530002580426
 30
0.0
 11
239.9655922587966
 21
129.8530002580426
 31
0.0
  0
SOLID
  5
203C
330
2037
100
AcDbEntity
  8
SC
 62
     0
100
AcDbTrace
 10
224.0422589254633
 20
130.186333591376
 30
0.0
 11
224.0422589254633
 21
129.5196669247093
 31
0.0
 12
222.0422589254633
 22
129.8530002580426
 32
0.0
 13
222.0422589254633
 23
129.8530002580426
 33
0.0
  0
SOLID
  5
203D
330
2037
100
AcDbEntity
  8
SC
 62
     0
100
AcDbTrace
 10
245.0422589254633
 20
130.186333591376
 30
0.0
 11
245.0422589254633
 21
129.5196669247093
 31
0.0
 12
247.0422589254633
 22
129.8530002580426
 32
0.0
 13
247.0422589254633
 23
129.8530002580426
 33
0.0
  0
MTEXT
  5
203E
330
2037
100
AcDbEntity
  8
SC
 62
     0
100
AcDbMText
 10
234.5422589254633
 20
129.8530002580426
 30
0.0
 40
2.0
 41
0.0
 71
     5
 72
     1
  1
\A1;25.0000
 73
     1
 44
1.0
1001
ACAD
1000
MTEXTBEGIN
1070
    73
1070
     1
1070
    44
1040
1.0
1070
    74
1070
     0
1000
MTEXTEND
  0
POINT
  5
203F
330
2037
100
AcDbEntity
  8
DEFPOINTS
 62
     0
100
AcDbPoint
 10
222.0422589254633
 20
146.5450000478688
 30
0.0
  0
POINT
  5
2040
330
2037
100
AcDbEntity
  8
DEFPOINTS
 62
     0
100
AcDbPoint
 10
247.0422589254633
 20
146.5450000478688
 30
0.0
  0
POINT
  5
2041
330
2037
100
AcDbEntity
  8
DEFPOINTS
 62
     0
100
AcDbPoint
 10
247.0422589254633
 20
129.8530002580426
 30
0.0
  0
ENDBLK
  5
2043
330
2037
100
AcDbEntity
  8
0
100
AcDbBlockEnd
  0
ENDSEC
  0
SECTION
  2
ENTITIES
  0
TEXT
  5
61
330
1E
100
AcDbEntity
  8
MO
100
AcDbText
 10
328.5
 20
53.5
 30
0.0
 40
4.0
  1

  7
0
 72
     1
 11
328.5
 21
53.5
 31
0.0
100
AcDbText
  0
TEXT
  5
62
330
1E
100
AcDbEntity
  8
MO
100
AcDbText
 10
328.5
 20
47.0
 30
0.0
 40
4.0
  1

  7
0
 72
     1
 11
328.5
 21
47.0
 31
0.0
100
AcDbText
  0
TEXT
  5
63
330
1E
100
AcDbEntity
  8
MO
100
AcDbText
 10
328.5
 20
34.0
 30
0.0
 40
4.0
  1

  7
0
 72
     1
 11
328.5
 21
34.0
 31
0.0
100
AcDbText
  0
TEXT
  5
6E
330
1E
100
AcDbEntity
  8
MO
100
AcDbText
 10
328.204
 20
39.802
 30
0.0
 40
4.0
  1

  7
0
 72
     1
 11
328.204
 21
39.802
 31
0.0
100
AcDbText
  0
TEXT
  5
89
330
1E
100
AcDbEntity
  8
MO
100
AcDbText
 10
82.20200000000009
 20
51.07199999999998
 30
0.0
 40
3.0
  1

  7
0
100
AcDbText
  0
TEXT
  5
8B
330
1E
100
AcDbEntity
  8
MO
100
AcDbText
 10
110.859
 20
51.07199999999998
 30
0.0
 40
3.0
  1

  7
0
100
AcDbText
  0
TEXT
  5
8D
330
1E
100
AcDbEntity
  8
MO
100
AcDbText
 10
360.261
 20
19.91099999999999
 30
0.0
 40
7.0
  1

  7
0
 72
     4
 11
360.261
 21
19.91099999999999
 31
0.0
100
AcDbText
  0
TEXT
  5
91
330
1E
100
AcDbEntity
  8
MO
370
    40
100
AcDbText
 10
200.0681565416116
 20
248.2942159269637
 30
0.0
 40
10.8
  1
SCH型カートリッジヒーター
  7
0
100
AcDbText
  0
TEXT
  5
AC
330
1E
100
AcDbEntity
  8
MO
100
AcDbText
 10
103.1910000000001
 20
51.07199999999996
 30
0.0
 40
3.0
  1

  7
0
100
AcDbText
  0
TEXT
  5
1399
330
1E
100
AcDbEntity
  8
MO
100
AcDbText
 10
75.70200000000008
 20
51.07199999999998
 30
0.0
 40
3.0
  1

  7
0
100
AcDbText
  0
TEXT
  5
139C
330
1E
100
AcDbEntity
  8
MO
100
AcDbText
 10
110.859
 20
63.07199999999996
 30
0.0
 40
3.0
  1

  7
0
100
AcDbText
  0
TEXT
  5
139F
330
1E
100
AcDbEntity
  8
SC
100
AcDbText
 10
135.033
 20
64.98099999999995
 30
0.0
 40
2.0
  1

  7
0
100
AcDbText
  0
TEXT
  5
13A0
330
1E
100
AcDbEntity
  8
MO
100
AcDbText
 10
110.859
 20
45.07200000000001
 30
0.0
 40
3.0
  1

  7
0
100
AcDbText
  0
TEXT
  5
148E
330
1E
100
AcDbEntity
  8
MO
100
AcDbText
 10
355.5371320877766
 20
10.917
 30
0.0
 40
5.0
  1
株）
  7
0
 72
     1
 11
359.5371320877766
 21
10.917
 31
0.0
100
AcDbText
  0
TEXT
  5
1491
330
1E
100
AcDbEntity
  8
SC
100
AcDbText
 10
103.7564
 20
117.6597333333333
 30
0.0
 40
0.25
  1

100
AcDbText
  0
TEXT
  5
1492
330
1E
100
AcDbEntity
  8
MO
100
AcDbText
 10
366.81
 20
10.917
 30
0.0
 40
6.0
  1
愛西電熱
  7
0
 72
     1
 11
380.41
 21
10.917
 31
0.0
100
AcDbText
  0
MTEXT
  5
1758
330
1E
100
AcDbEntity
  8
SC
100
AcDbMText
 10
317.637
 20
21.871
 30
0.0
 40
2.5
 41
0.0
 71
     1
 72
     5
  1

  7
0
 73
     1
 44
1.0
1001
ACAD
1000
MTEXTBEGIN
1070
    73
1070
     1
1070
    44
1040
1.0
1070
    74
1070
     0
1000
MTEXTEND
  0
MTEXT
  5
178F
330
1E
100
AcDbEntity
  8
SC
100
AcDbMText
 10
257.7583612883634
 20
66.67161102985324
 30
0.0
 40
5.0
 41
0.0
 71
     1
 72
     5
  1
変更部がありましたら図面に書き込んで御利用下さい
  7
0
 73
     1
 44
1.0
1001
ACAD
1000
MTEXTBEGIN
1070
    73
1070
     1
1070
    44
1040
1.0
1070
    74
1070
     0
1000
MTEXTEND
  0
LINE
  5
17DC
330
1E
100
AcDbEntity
  8
0
100
AcDbLine
 10
14.99999999999995
 20
30.70499999999999
 30
0.0
 11
14.99999999999995
 21
50.70499999999999
 31
0.0
  0
LINE
  5
17DE
330
1E
100
AcDbEntity
  8
0
100
AcDbLine
 10
24.99999999999994
 20
50.70499999999999
 30
0.0
 11
24.99999999999994
 21
30.705
 31
0.0
  0
LINE
  5
1806
330
1E
100
AcDbEntity
  8
0
100
AcDbLine
 10
14.99999999999995
 20
50.70499999999999
 30
0.0
 11
49.99999999999994
 21
50.70499999999999
 31
0.0
  0
LINE
  5
1807
330
1E
100
AcDbEntity
  8
0
100
AcDbLine
 10
14.99999999999995
 20
40.70499999999999
 30
0.0
 11
49.99999999999994
 21
40.70499999999999
 31
0.0
  0
LINE
  5
1808
330
1E
100
AcDbEntity
  8
0
100
AcDbLine
 10
14.99999999999995
 20
30.70499999999999
 30
0.0
 11
49.99999999999994
 21
30.70499999999999
 31
0.0
  0
LINE
  5
180A
330
1E
100
AcDbEntity
  8
0
100
AcDbLine
 10
159.9999999999999
 20
50.70499999999999
 30
0.0
 11
281.0
 21
50.70499999999999
 31
0.0
  0
TEXT
  5
1814
330
1E
100
AcDbEntity
  8
MO
100
AcDbText
 10
19.18000058282744
 20
43.87999982484505
 30
0.0
 40
3.499999999999999
  1
A
  7
0
100
AcDbText
  0
TEXT
  5
181A
330
1E
100
AcDbEntity
  8
MO
100
AcDbText
 10
91.28012879570206
 20
43.7553613470516
 30
0.0
 40
3.499999999999999
  1
B
  7
0
100
AcDbText
  0
TEXT
  5
1822
330
1E
100
AcDbEntity
  8
MO
100
AcDbText
 10
27.79911516864903
 20
43.07893657328403
 30
0.0
 40
4.375
  1
パイプ径
  7
0
 72
     1
 11
37.7157818353157
 21
43.07893657328403
 31
0.0
100
AcDbText
  0
TEXT
  5
1829
330
1E
100
AcDbEntity
  8
MO
100
AcDbText
 10
105.2406545747246
 20
43.61824969380626
 30
0.0
 40
4.375
  1
長さ
  7
0
 72
     1
 11
109.6156545747246
 21
43.61824969380626
 31
0.0
100
AcDbText
  0
TEXT
  5
1844
330
1E
100
AcDbEntity
  8
MO
100
AcDbText
 10
18.85312879570205
 20
33.67336134705161
 30
0.0
 40
3.499999999999999
  1
C
  7
0
100
AcDbText
  0
TEXT
  5
1845
330
1E
100
AcDbEntity
  8
MO
100
AcDbText
 10
32.40350193661301
 20
33.50686474409736
 30
0.0
 40
4.375
  1
線長
  7
0
 72
     1
 11
36.92433526994634
 21
33.50686474409736
 31
0.0
100
AcDbText
  0
LINE
  5
1847
330
1E
100
AcDbEntity
  8
0
100
AcDbLine
 10
49.99999999999994
 20
50.70499999999999
 30
0.0
 11
49.99999999999994
 21
30.70499999999999
 31
0.0
  0
TEXT
  5
1856
330
1E
100
AcDbEntity
  8
MO
100
AcDbText
 10
226.088412769654
 20
33.66682550160349
 30
0.0
 40
4.375
  1
数量
  7
0
 72
     1
 11
230.7550794363206
 21
33.66682550160349
 31
0.0
100
AcDbText
  0
LINE
  5
1870
330
1E
100
AcDbEntity
  8
0
100
AcDbLine
 10
14.99999999999994
 20
30.705
 30
0.0
 11
159.9999999999999
 21
30.70499999999999
 31
0.0
  0
LINE
  5
1871
330
1E
100
AcDbEntity
  8
0
100
AcDbLine
 10
87.49999999999992
 20
50.70499999999999
 30
0.0
 11
87.49999999999992
 21
30.70499999999999
 31
0.0
  0
LINE
  5
1873
330
1E
100
AcDbEntity
  8
0
100
AcDbLine
 10
49.99999999999994
 20
50.70499999999999
 30
0.0
 11
159.9999999999999
 21
50.70499999999999
 31
0.0
  0
LINE
  5
1874
330
1E
100
AcDbEntity
  8
0
100
AcDbLine
 10
49.99999999999994
 20
40.70499999999999
 30
0.0
 11
87.49999999999992
 21
40.70499999999999
 31
0.0
  0
LINE
  5
1875
330
1E
100
AcDbEntity
  8
0
100
AcDbLine
 10
49.99999999999994
 20
30.70499999999999
 30
0.0
 11
159.9999999999999
 21
30.70499999999999
 31
0.0
  0
LINE
  5
1884
330
1E
100
AcDbEntity
  8
0
100
AcDbLine
 10
122.4999999999999
 20
40.705
 30
0.0
 11
159.9999999999999
 21
40.705
 31
0.0
  0
LINE
  5
1888
330
1E
100
AcDbEntity
  8
0
100
AcDbLine
 10
14.99999999999994
 20
30.705
 30
0.0
 11
159.9999999999999
 21
30.70499999999999
 31
0.0
  0
LINE
  5
1889
330
1E
100
AcDbEntity
  8
0
100
AcDbLine
 10
17.99999999999994
 20
20.705
 30
0.0
 11
283.2259999999999
 21
20.70499999999999
 31
0.0
  0
LINE
  5
188A
330
1E
100
AcDbEntity
  8
0
100
AcDbLine
 10
17.99999999999994
 20
10.705
 30
0.0
 11
283.2259999999999
 21
10.70499999999998
 31
0.0
  0
TEXT
  5
1892
330
1E
100
AcDbEntity
  8
MO
100
AcDbText
 10
18.0825030365616
 20
28.37468907764135
 30
0.0
 40
2.799999999999999
  1

  7
0
100
AcDbText
  0
TEXT
  5
1893
330
1E
100
AcDbEntity
  8
MO
100
AcDbText
 10
18.31122710757998
 20
21.78303665633006
 30
0.0
 40
3.5
  1
その他詳細：
  7
0
 72
     1
 11
29.86122710757998
 21
21.78303665633006
 31
0.0
100
AcDbText
  0
LINE
  5
18A2
330
1E
100
AcDbEntity
  8
0
100
AcDbLine
 10
87.49999999999992
 20
40.70499999999999
 30
0.0
 11
159.9999999999999
 21
40.70499999999999
 31
0.0
  0
TEXT
  5
18A3
330
1E
100
AcDbEntity
  8
MO
100
AcDbText
 10
226.322471877816
 20
43.55161148403567
 30
0.0
 40
4.375
  1
容量
  7
0
 72
     1
 11
230.9891385444827
 21
43.55161148403567
 31
0.0
100
AcDbText
  0
TEXT
  5
18A5
330
1E
100
AcDbEntity
  8
MO
100
AcDbText
 10
166.1966333931626
 20
43.47752605931685
 30
0.0
 40
4.375
  1
電圧
  7
0
 72
     1
 11
170.8633000598292
 21
43.47752605931685
 31
0.0
100
AcDbText
  0
LINE
  5
18A9
330
1E
100
AcDbEntity
  8
0
100
AcDbLine
 10
159.9999999999999
 20
50.70499999999999
 30
0.0
 11
159.9999999999999
 21
30.70499999999999
 31
0.0
  0
LINE
  5
18AA
330
1E
100
AcDbEntity
  8
0
100
AcDbLine
 10
97.49999999999994
 20
50.70499999999999
 30
0.0
 11
97.49999999999994
 21
30.70499999999999
 31
0.0
  0
LINE
  5
18AB
330
1E
100
AcDbEntity
  8
0
100
AcDbLine
 10
122.4999999999999
 20
50.70499999999999
 30
0.0
 11
122.4999999999999
 21
30.70499999999999
 31
0.0
  0
TEXT
  5
18B4
330
1E
100
AcDbEntity
  8
MO
100
AcDbText
 10
334.7498393399925
 20
3.380574230302642
 30
0.0
 40
3.5
  1
AISEI  DENNETSU CO., LTD
  7
0
100
AcDbText
  0
TEXT
  5
18BD
330
1E
100
AcDbEntity
  8
MO
100
AcDbText
 10
397.7133211714158
 20
11.06163477656134
 30
0.0
 40
5.0
  1
行
  7
0
 72
     1
 11
400.046654504749
 21
11.06163477656134
 31
0.0
100
AcDbText
  0
TEXT
  5
18C6
330
1E
100
AcDbEntity
  8
MO
100
AcDbText
 10
80.18549947051658
 20
43.19699993280605
 30
0.0
 40
4.375
  1
φ
  7
0
 72
     1
 11
82.37299947051658
 21
43.19699993280605
 31
0.0
100
AcDbText
  0
TEXT
  5
18CC
330
1E
100
AcDbEntity
  8
MO
100
AcDbText
 10
150.2635240194453
 20
42.82492724811003
 30
0.0
 40
3.0625
  1
mm
  7
0
 72
     1
 11
154.055190686112
 21
42.82492724811003
 31
0.0
100
AcDbText
  0
TEXT
  5
18D2
330
1E
100
AcDbEntity
  8
MO
100
AcDbText
 10
212.9983333333334
 20
42.769
 30
0.0
 40
4.375
  1
V
  7
0
 72
     1
 11
214.665
 21
42.769
 31
0.0
100
AcDbText
  0
TEXT
  5
18D8
330
1E
100
AcDbEntity
  8
MO
100
AcDbText
 10
274.0657843763748
 20
44.28327818328745
 30
0.0
 40
3.0625
  1

  7
0
 72
     1
 11
274.0657843763748
 21
44.28327818328745
 31
0.0
100
AcDbText
  0
TEXT
  5
18DE
330
1E
100
AcDbEntity
  8
MO
100
AcDbText
 10
273.907542192391
 20
33.68694780040364
 30
0.0
 40
4.375
  1
本
  7
0
 72
     1
 11
275.9492088590577
 21
33.68694780040364
 31
0.0
100
AcDbText
  0
TEXT
  5
18E4
330
1E
100
AcDbEntity
  8
MO
100
AcDbText
 10
68.9897995764133
 20
33.91959994624484
 30
0.0
 40
3.5
  1

  7
0
 72
     1
 11
68.9897995764133
 21
33.91959994624484
 31
0.0
100
AcDbText
  0
TEXT
  5
18EB
330
1E
100
AcDbEntity
  8
MO
100
AcDbText
 10
17.62914196000259
 20
55.01909017515878
 30
0.0
 40
4.550000000000001
  1
※　下記空欄に記入し、FAXしてください
  7
0
100
AcDbText
  0
LINE
  5
18ED
330
1E
100
AcDbEntity
  8
0
100
AcDbLine
 10
3.193615971125439
 20
267.713
 30
0.0
 11
128.2526159711254
 21
267.713
 31
0.0
  0
LINE
  5
18EE
330
1E
100
AcDbEntity
  8
0
100
AcDbLine
 10
3.193615971125439
 20
255.713
 30
0.0
 11
128.2526159711254
 21
255.7129999999999
 31
0.0
  0
LINE
  5
18EF
330
1E
100
AcDbEntity
  8
0
100
AcDbLine
 10
3.193615971125424
 20
243.713
 30
0.0
 11
128.2526159711254
 21
243.7129999999999
 31
0.0
  0
LINE
  5
18F0
330
1E
100
AcDbEntity
  8
0
100
AcDbLine
 10
3.193615971125424
 20
231.713
 30
0.0
 11
128.2526159711254
 21
231.7129999999999
 31
0.0
  0
TEXT
  5
18F7
330
1E
100
AcDbEntity
  8
MO
100
AcDbText
 10
5.047000000000002
 20
269.7195108252091
 30
0.0
 40
4.375
  1
貴社名：
  7
0
 72
     1
 11
14.08866666666667
 21
269.7195108252091
 31
0.0
100
AcDbText
  0
TEXT
  5
18FF
330
1E
100
AcDbEntity
  8
MO
100
AcDbText
 10
4.762445293775542
 20
259.6404968976157
 30
0.0
 40
4.375
  1
部署・担当者名：
  7
0
 72
     1
 11
24.30411196044222
 21
259.6404968976157
 31
0.0
100
AcDbText
  0
TEXT
  5
190B
330
1E
100
AcDbEntity
  8
MO
100
AcDbText
 10
4.244409610399635
 20
235.1743512486338
 30
0.0
 40
4.375
  1
御連絡先 FAX：
  7
0
 72
     1
 11
23.4735762770663
 21
235.1743512486338
 31
0.0
100
AcDbText
  0
TEXT
  5
1918
330
1E
100
AcDbEntity
  8
MO
100
AcDbText
 10
4.271947869785471
 20
247.7453335828736
 30
0.0
 40
4.375
  1
御連絡先 TEL：
  7
0
 72
     1
 11
22.87611453645213
 21
247.7453335828736
 31
0.0
100
AcDbText
  0
LINE
  5
1923
330
1E
100
AcDbEntity
  8
0
370
    40
100
AcDbLine
 10
315.0881625155811
 20
37.35735115744029
 30
0.0
 11
393.0881625155811
 21
37.35735115744029
 31
0.0
  0
LINE
  5
1924
330
1E
100
AcDbEntity
  8
0
370
    40
100
AcDbLine
 10
315.0881625155811
 20
34.7573511574403
 30
0.0
 11
399.5881625155811
 21
34.7573511574403
 31
0.0
  0
LINE
  5
1925
330
1E
100
AcDbEntity
  8
0
370
    40
100
AcDbLine
 10
393.0881625155811
 20
37.35735115744029
 30
0.0
 11
393.0881625155811
 21
39.95735115744029
 31
0.0
  0
LINE
  5
1926
330
1E
100
AcDbEntity
  8
0
370
    40
100
AcDbLine
 10
393.0881625155811
 20
39.95735115744029
 30
0.0
 11
399.5881625155811
 21
34.7573511574403
 31
0.0
  0
LINE
  5
1927
330
1E
100
AcDbEntity
  8
0
370
    40
100
AcDbLine
 10
315.0881625155811
 20
37.35735115744029
 30
0.0
 11
315.0881625155811
 21
34.7573511574403
 31
0.0
  0
TEXT
  5
192E
330
1E
100
AcDbEntity
  8
MO
370
    40
100
AcDbText
 10
324.6798300677355
 20
38.84484239326316
 30
0.0
 40
7.800000000000001
  1
FAX送信方向
  7
0
 72
     1
 11
353.2426872105926
 21
38.84484239326316
 31
0.0
100
AcDbText
  0
TEXT
  5
1943
330
1E
100
AcDbEntity
  8
0
370
    53
100
AcDbText
 10
86.07465571428523
 20
284.1842971226886
 30
0.0
 40
10.0
  1
愛西電熱　見積依頼書・注文書　フォーム
  7
0
100
AcDbText
  0
TEXT
  5
195E
330
1E
100
AcDbEntity
  8
MO
370
    40
100
AcDbText
 10
313.1463329590498
 20
24.83965109775832
 30
0.0
 40
7.800000000000001
  1
0568-25-2241
  7
0
 72
     1
 11
357.1606186733355
 21
24.83965109775832
 31
0.0
100
AcDbText
  0
LINE
  5
19C2
330
1E
100
AcDbEntity
  8
SC
370
    40
100
AcDbLine
 10
195.036
 20
245.664
 30
0.0
 11
377.6329999999999
 21
245.664
 31
0.0
  0
LINE
  5
19F9
330
1E
100
AcDbEntity
  8
0
100
AcDbLine
 10
160.9999999999999
 20
50.70499999999999
 30
0.0
 11
160.9999999999999
 21
30.70499999999999
 31
0.0
  0
LINE
  5
1A00
330
1E
100
AcDbEntity
  8
0
100
AcDbLine
 10
159.9999999999999
 20
40.705
 30
0.0
 11
280.9999999999999
 21
40.70499999999983
 31
0.0
  0
LINE
  5
1A06
330
1E
100
AcDbEntity
  8
0
100
AcDbLine
 10
159.9999999999999
 20
30.70499999999999
 30
0.0
 11
280.9999999999999
 21
30.70499999999997
 31
0.0
  0
LINE
  5
1A08
330
1E
100
AcDbEntity
  8
0
100
AcDbLine
 10
180.9999999999999
 20
50.70499999999999
 30
0.0
 11
180.9999999999999
 21
30.70499999999999
 31
0.0
  0
LINE
  5
1A09
330
1E
100
AcDbEntity
  8
0
100
AcDbLine
 10
220.9999999999999
 20
50.70499999999999
 30
0.0
 11
220.9999999999999
 21
30.70499999999998
 31
0.0
  0
LINE
  5
1A12
330
1E
100
AcDbEntity
  8
0
100
AcDbLine
 10
281.0
 20
50.70499999999999
 30
0.0
 11
280.9999999999999
 21
30.70499999999997
 31
0.0
  0
LINE
  5
1A13
330
1E
100
AcDbEntity
  8
0
100
AcDbLine
 10
241.0
 20
50.70499999999999
 30
0.0
 11
241.0
 21
30.70499999999999
 31
0.0
  0
LINE
  5
1A14
330
1E
100
AcDbEntity
  8
0
100
AcDbLine
 10
220.9999999999999
 20
50.70499999999999
 30
0.0
 11
220.9999999999999
 21
30.70499999999999
 31
0.0
  0
LWPOLYLINE
  5
1E44
330
1E
100
AcDbEntity
  8
SC
100
AcDbPolyline
 90
        3
 70
     0
 43
0.0
 10
262.3947824525585
 20
157.9160379009161
 10
272.328
 20
186.341
 10
324.2417410745368
 20
186.341
1001
ACAD
1000
DSTYLE
1002
{
1070
   147
1040
0.09
1070
    77
1070
     0
1002
}
  0
SOLID
  5
1E45
330
1E
100
AcDbEntity
  8
SC
100
AcDbTrace
 10
262.7148968471033
 20
157.8216453372829
 30
0.0
 11
261.7404414110588
 21
156.0435711784599
 31
0.0
 12
262.0855508801313
 22
158.0415728214691
 32
0.0
 13
262.0855508801313
 23
158.0415728214691
 33
0.0
1001
ACAD
1000
DSTYLE
1002
{
1070
   147
1040
0.09
1070
    77
1070
     0
1002
}
  0
LEADER
  5
1FD9
330
1E
100
AcDbEntity
  8
SC
100
AcDbLeader
  3
Standard
 76
     2
 10
127.175
 20
151.884
 30
0.0
 10
142.467
 20
182.796
 30
0.0
1001
ACAD
1000
DSTYLE
1002
{
1070
   341
1005
1C97
1070
   147
1040
0.09
1070
    77
1070
     0
1002
}
  0
LINE
  5
1FF3
330
1E
100
AcDbEntity
  8
SC
100
AcDbLine
 10
142.467
 20
182.796
 30
0.0
 11
184.5607410745367
 21
182.796
 31
0.0
  0
TEXT
  5
1FF9
330
1E
100
AcDbEntity
  8
MO
100
AcDbText
 10
144.4078868913239
 20
183.1246888465783
 30
0.0
 40
3.599999999999999
  1
ヒーター SUS304
  7
0
100
AcDbText
  0
TEXT
  5
2009
330
1E
100
AcDbEntity
  8
MO
100
AcDbText
 10
275.3707405952296
 20
186.6129997867304
 30
0.0
 40
3.599999999999999
  1
シリコンガラスチューブ
  7
0
100
AcDbText
  0
TEXT
  5
200F
330
1E
100
AcDbEntity
  8
MO
100
AcDbText
 10
308.9957405398379
 20
182.8400000938846
 30
0.0
 40
2.799999999999999
  1
SRG-1
  7
0
100
AcDbText
  0
LINE
  5
2010
330
1E
100
AcDbEntity
  8
SC
100
AcDbLine
 10
354.963
 20
156.717
 30
0.0
 11
359.5311219426803
 21
171.4299029560399
 31
0.0
1001
ACAD
1000
DSTYLE
1002
{
1070
   147
1040
0.09
1070
    77
1070
     0
1002
}
  0
LINE
  5
2011
330
1E
100
AcDbEntity
  8
SC
100
AcDbLine
 10
359.5311219426803
 20
171.4299029560399
 30
0.0
 11
383.6879839755351
 21
171.4299029560399
 31
0.0
1001
ACAD
1000
DSTYLE
1002
{
1070
   147
1040
0.09
1070
    77
1070
     0
1002
}
  0
TEXT
  5
2018
330
1E
100
AcDbEntity
  8
MO
100
AcDbText
 10
361.9199842121801
 20
171.8132119572557
 30
0.0
 40
2.799999999999999
  1
耐熱リード線
  7
0
100
AcDbText
  0
TEXT
  5
202D
330
1E
100
AcDbEntity
  8
MO
100
AcDbText
 10
375.5407357754078
 20
167.9472118362041
 30
0.0
 40
2.799999999999999
  1
（C）
  7
0
100
AcDbText
  0
TEXT
  5
2035
330
1E
100
AcDbEntity
  8
MO
100
AcDbText
 10
77.7635240194453
 20
32.82492724811003
 30
0.0
 40
3.0625
  1
mm
  7
0
 72
     1
 11
81.55519068611196
 21
32.82492724811003
 31
0.0
100
AcDbText
  0
LINE
  5
210E
330
1E
100
AcDbEntity
  8
HA
100
AcDbLine
 10
253.018
 20
146.428
 30
0.0
 11
283.018
 21
146.428
 31
0.0
  0
LINE
  5
210F
330
1E
100
AcDbEntity
  8
HA
100
AcDbLine
 10
253.018
 20
144.6279999999999
 30
0.0
 11
283.018
 21
144.6279999999999
 31
0.0
  0
LINE
  5
2110
330
1E
100
AcDbEntity
  8
HA
100
AcDbLine
 10
283.018
 20
146.428
 30
0.0
 11
283.018
 21
144.6279999999999
 31
0.0
  0
LINE
  5
2111
330
1E
100
AcDbEntity
  8
HA
100
AcDbLine
 10
283.018
 20
146.428
 30
0.0
 11
283.018
 21
146.828
 31
0.0
  0
LINE
  5
2112
330
1E
100
AcDbEntity
  8
HA
100
AcDbLine
 10
283.018
 20
146.828
 30
0.0
 11
291.018
 21
146.828
 31
0.0
  0
LINE
  5
2113
330
1E
100
AcDbEntity
  8
HA
100
AcDbLine
 10
291.018
 20
146.828
 30
0.0
 11
291.018
 21
145.3470003435427
 31
0.0
  0
LINE
  5
2114
330
1E
100
AcDbEntity
  8
HA
100
AcDbLine
 10
291.018
 20
144.228
 30
0.0
 11
291.018
 21
145.7089996564572
 31
0.0
  0
LINE
  5
2115
330
1E
100
AcDbEntity
  8
HA
100
AcDbLine
 10
283.018
 20
144.228
 30
0.0
 11
291.018
 21
144.228
 31
0.0
  0
LINE
  5
2116
330
1E
100
AcDbEntity
  8
HA
100
AcDbLine
 10
283.018
 20
144.6279999999999
 30
0.0
 11
283.018
 21
144.228
 31
0.0
  0
LINE
  5
2117
330
1E
100
AcDbEntity
  8
HA
100
AcDbLine
 10
303.018
 20
146.5279999999999
 30
0.0
 11
291.018
 21
146.528
 31
0.0
  0
LINE
  5
2118
330
1E
100
AcDbEntity
  8
HA
100
AcDbLine
 10
303.018
 20
144.528
 30
0.0
 11
291.018
 21
144.528
 31
0.0
  0
LINE
  5
2119
330
1E
100
AcDbEntity
  8
HA
100
AcDbLine
 10
303.018
 20
153.528
 30
0.0
 11
301.018
 21
153.528
 31
0.0
  0
LINE
  5
211A
330
1E
100
AcDbEntity
  8
HA
100
AcDbLine
 10
303.018
 20
155.528
 30
0.0
 11
301.018
 21
155.528
 31
0.0
  0
LINE
  5
211B
330
1E
100
AcDbEntity
  8
HA
100
AcDbLine
 10
293.018
 20
153.628
 30
0.0
 11
293.018
 21
153.228
 31
0.0
  0
LINE
  5
211C
330
1E
100
AcDbEntity
  8
HA
100
AcDbLine
 10
293.018
 20
153.228
 30
0.0
 11
301.018
 21
153.228
 31
0.0
  0
LINE
  5
211D
330
1E
100
AcDbEntity
  8
HA
100
AcDbLine
 10
301.018
 20
153.228
 30
0.0
 11
301.018
 21
154.7089996564572
 31
0.0
  0
LINE
  5
211E
330
1E
100
AcDbEntity
  8
HA
100
AcDbLine
 10
301.018
 20
155.828
 30
0.0
 11
301.018
 21
154.3470003435427
 31
0.0
  0
LINE
  5
211F
330
1E
100
AcDbEntity
  8
HA
100
AcDbLine
 10
293.018
 20
155.828
 30
0.0
 11
301.018
 21
155.828
 31
0.0
  0
LINE
  5
2120
330
1E
100
AcDbEntity
  8
HA
100
AcDbLine
 10
293.018
 20
155.428
 30
0.0
 11
293.018
 21
155.828
 31
0.0
  0
LINE
  5
2121
330
1E
100
AcDbEntity
  8
HA
100
AcDbLine
 10
293.018
 20
155.428
 30
0.0
 11
293.018
 21
153.628
 31
0.0
  0
LINE
  5
2122
330
1E
100
AcDbEntity
  8
HA
100
AcDbLine
 10
253.018
 20
153.628
 30
0.0
 11
293.018
 21
153.628
 31
0.0
  0
LINE
  5
2123
330
1E
100
AcDbEntity
  8
HA
100
AcDbLine
 10
253.018
 20
155.428
 30
0.0
 11
293.018
 21
155.428
 31
0.0
  0
LINE
  5
2124
330
1E
100
AcDbEntity
  8
SC
100
AcDbLine
 10
383.018
 20
145.528
 30
0.0
 11
389.018
 21
145.528
 31
0.0
  0
LINE
  5
2125
330
1E
100
AcDbEntity
  8
SC
100
AcDbLine
 10
383.018
 20
145.828
 30
0.0
 11
389.018
 21
145.828
 31
0.0
  0
LINE
  5
2126
330
1E
100
AcDbEntity
  8
SC
100
AcDbLine
 10
383.018
 20
145.228
 30
0.0
 11
389.018
 21
145.228
 31
0.0
  0
LINE
  5
2127
330
1E
100
AcDbEntity
  8
SC
100
AcDbLine
 10
383.018
 20
144.9279999999999
 30
0.0
 11
389.018
 21
144.9279999999999
 31
0.0
  0
LINE
  5
2128
330
1E
100
AcDbEntity
  8
SC
100
AcDbLine
 10
383.018
 20
146.128
 30
0.0
 11
389.018
 21
146.128
 31
0.0
  0
LINE
  5
2129
330
1E
100
AcDbEntity
  8
SC
100
AcDbLine
 10
383.018
 20
146.428
 30
0.0
 11
389.018
 21
146.428
 31
0.0
  0
LINE
  5
212A
330
1E
100
AcDbEntity
  8
SC
100
AcDbLine
 10
383.018
 20
144.6279999999999
 30
0.0
 11
389.018
 21
144.6279999999999
 31
0.0
  0
LINE
  5
212B
330
1E
100
AcDbEntity
  8
SC
100
AcDbLine
 10
383.018
 20
153.6279999999999
 30
0.0
 11
389.018
 21
153.6279999999999
 31
0.0
  0
LINE
  5
212C
330
1E
100
AcDbEntity
  8
SC
100
AcDbLine
 10
383.018
 20
155.428
 30
0.0
 11
389.018
 21
155.428
 31
0.0
  0
LINE
  5
212D
330
1E
100
AcDbEntity
  8
SC
100
AcDbLine
 10
383.018
 20
155.128
 30
0.0
 11
389.018
 21
155.128
 31
0.0
  0
LINE
  5
212E
330
1E
100
AcDbEntity
  8
SC
100
AcDbLine
 10
383.018
 20
153.9279999999999
 30
0.0
 11
389.018
 21
153.9279999999999
 31
0.0
  0
LINE
  5
212F
330
1E
100
AcDbEntity
  8
SC
100
AcDbLine
 10
383.018
 20
154.228
 30
0.0
 11
389.018
 21
154.228
 31
0.0
  0
LINE
  5
2130
330
1E
100
AcDbEntity
  8
SC
100
AcDbLine
 10
383.018
 20
154.828
 30
0.0
 11
389.018
 21
154.828
 31
0.0
  0
LINE
  5
2131
330
1E
100
AcDbEntity
  8
SC
100
AcDbLine
 10
383.018
 20
154.528
 30
0.0
 11
389.018
 21
154.528
 31
0.0
  0
LINE
  5
2132
330
1E
100
AcDbEntity
  8
SA
100
AcDbLine
 10
161.4548475689882
 20
142.028
 30
0.0
 11
157.293
 21
142.028
 31
0.0
  0
LINE
  5
2133
330
1E
100
AcDbEntity
  8
SA
100
AcDbLine
 10
176.2869860177179
 20
158.028
 30
0.0
 11
253.018
 21
158.028
 31
0.0
  0
LINE
  5
2134
330
1E
100
AcDbEntity
  8
SA
100
AcDbLine
 10
180.5609999999999
 20
163.917
 30
0.0
 11
160.162
 21
135.81
 31
0.0
  0
LINE
  5
2135
330
1E
100
AcDbEntity
  8
SA
100
AcDbLine
 10
177.318
 20
163.9369999999999
 30
0.0
 11
156.931
 21
135.7799999999999
 31
0.0
  0
LINE
  5
2136
330
1E
100
AcDbEntity
  8
SC
100
AcDbLine
 10
241.2246317366203
 20
152.7380781178653
 30
0.0
 11
241.0309999999999
 21
144.028
 31
0.0
  0
LINE
  5
2137
330
1E
100
AcDbEntity
  8
SC
100
AcDbLine
 10
240.2338447608041
 20
153.1525048112593
 30
0.0
 11
240.031
 21
144.028
 31
0.0
  0
LINE
  5
2138
330
1E
100
AcDbEntity
  8
SC
100
AcDbLine
 10
239.2456363959598
 20
153.6829243857361
 30
0.0
 11
239.0309999999999
 21
144.028
 31
0.0
  0
LINE
  5
2139
330
1E
100
AcDbEntity
  8
SC
100
AcDbLine
 10
238.2605151376647
 20
154.3522103447816
 30
0.0
 11
238.031
 21
144.028
 31
0.0
  0
LINE
  5
213A
330
1E
100
AcDbEntity
  8
SC
100
AcDbLine
 10
237.2789686504396
 20
155.1822991547181
 30
0.0
 11
237.0309999999999
 21
144.028
 31
0.0
  0
LINE
  5
213B
330
1E
100
AcDbEntity
  8
SC
100
AcDbLine
 10
236.2977692307693
 20
156.028
 30
0.0
 11
236.031
 21
144.028
 31
0.0
  0
LINE
  5
213C
330
1E
100
AcDbEntity
  8
SC
100
AcDbLine
 10
201.219215356108
 20
152.4944347038158
 30
0.0
 11
201.2086364845974
 21
152.0185685113001
 31
0.0
  0
LINE
  5
213D
330
1E
100
AcDbEntity
  8
SC
100
AcDbLine
 10
202.2383708062173
 20
153.3560985495675
 30
0.0
 11
202.1917804624215
 21
151.2603391400722
 31
0.0
  0
LINE
  5
213E
330
1E
100
AcDbEntity
  8
SC
100
AcDbLine
 10
203.2495178655409
 20
153.8575233634302
 30
0.0
 11
203.1830588804604
 21
150.8680188442389
 31
0.0
  0
LINE
  5
213F
330
1E
100
AcDbEntity
  8
SC
100
AcDbLine
 10
204.2587898278696
 20
154.2746012536465
 30
0.0
 11
204.1761284216552
 21
150.5562681021408
 31
0.0
  0
LINE
  5
2140
330
1E
100
AcDbEntity
  8
SC
100
AcDbLine
 10
205.2670958211002
 20
154.6482272467245
 30
0.0
 11
205.1700504026867
 21
150.282862404588
 31
0.0
  0
LINE
  5
2141
330
1E
100
AcDbEntity
  8
SC
100
AcDbLine
 10
206.2747962957096
 20
154.9946153779391
 30
0.0
 11
206.1644526502399
 21
150.0310603914144
 31
0.0
  0
LINE
  5
2142
330
1E
100
AcDbEntity
  8
SC
100
AcDbLine
 10
207.2820787148613
 20
155.3221982463561
 30
0.0
 11
207.1591403193691
 21
149.7920974110617
 31
0.0
  0
LINE
  5
2143
330
1E
100
AcDbEntity
  8
SC
100
AcDbLine
 10
208.2890559422551
 20
155.6360527658053
 30
0.0
 11
208.1539943180112
 21
149.5606163811291
 31
0.0
  0
LINE
  5
2144
330
1E
100
AcDbEntity
  8
SC
100
AcDbLine
 10
209.2958027140266
 20
155.9395407693685
 30
0.0
 11
209.1489337555698
 21
149.3329786242495
 31
0.0
  0
LINE
  5
2145
330
1E
100
AcDbEntity
  8
SC
100
AcDbLine
 10
210.2977692307693
 20
156.028
 30
0.0
 11
210.1438990543876
 21
149.1065041766034
 31
0.0
  0
LINE
  5
2146
330
1E
100
AcDbEntity
  8
SC
100
AcDbLine
 10
211.2977692307693
 20
156.028
 30
0.0
 11
211.1388432832359
 21
148.8790819448715
 31
0.0
  0
LINE
  5
2147
330
1E
100
AcDbEntity
  8
SC
100
AcDbLine
 10
212.2977692307693
 20
156.028
 30
0.0
 11
212.1337272430785
 21
148.6489486505875
 31
0.0
  0
LINE
  5
2148
330
1E
100
AcDbEntity
  8
SC
100
AcDbLine
 10
213.2977692307693
 20
156.028
 30
0.0
 11
213.1285164353569
 21
148.4145524555022
 31
0.0
  0
LINE
  5
2149
330
1E
100
AcDbEntity
  8
SC
100
AcDbLine
 10
214.2977692307693
 20
156.028
 30
0.0
 11
214.1231790364424
 21
148.174461846888
 31
0.0
  0
LINE
  5
214A
330
1E
100
AcDbEntity
  8
SC
100
AcDbLine
 10
215.2977692307693
 20
156.028
 30
0.0
 11
215.1176844269853
 21
147.927299483771
 31
0.0
  0
LINE
  5
214B
330
1E
100
AcDbEntity
  8
SC
100
AcDbLine
 10
216.2977692307693
 20
156.028
 30
0.0
 11
216.1120020220705
 21
147.6716895741076
 31
0.0
  0
LINE
  5
214C
330
1E
100
AcDbEntity
  8
SC
100
AcDbLine
 10
217.2977692307693
 20
156.028
 30
0.0
 11
217.1061002437806
 21
147.4062116579504
 31
0.0
  0
LINE
  5
214D
330
1E
100
AcDbEntity
  8
SC
100
AcDbLine
 10
218.2977692307693
 20
156.028
 30
0.0
 11
218.0999455234737
 21
147.129355727189
 31
0.0
  0
LINE
  5
214E
330
1E
100
AcDbEntity
  8
SC
100
AcDbLine
 10
219.2977692307693
 20
156.028
 30
0.0
 11
219.0935012386337
 21
146.8394744022123
 31
0.0
  0
LINE
  5
214F
330
1E
100
AcDbEntity
  8
SC
100
AcDbLine
 10
220.2977692307693
 20
156.028
 30
0.0
 11
220.086726487237
 21
146.5347277995918
 31
0.0
  0
LINE
  5
2150
330
1E
100
AcDbEntity
  8
SC
100
AcDbLine
 10
221.2977692307693
 20
156.028
 30
0.0
 11
221.0795745825663
 21
146.2130158247826
 31
0.0
  0
LINE
  5
2151
330
1E
100
AcDbEntity
  8
SC
100
AcDbLine
 10
222.2977692307693
 20
156.028
 30
0.0
 11
222.0719911088226
 21
145.8718907082811
 31
0.0
  0
LINE
  5
2152
330
1E
100
AcDbEntity
  8
SC
100
AcDbLine
 10
223.2977692307693
 20
156.028
 30
0.0
 11
223.0639113007732
 21
145.5084391351241
 31
0.0
  0
LINE
  5
2153
330
1E
100
AcDbEntity
  8
SC
100
AcDbLine
 10
224.2977692307693
 20
156.028
 30
0.0
 11
224.0552563741455
 21
145.1191171760932
 31
0.0
  0
LINE
  5
2154
330
1E
100
AcDbEntity
  8
SC
100
AcDbLine
 10
225.2977692307693
 20
156.028
 30
0.0
 11
225.0459281865474
 21
144.6995101215107
 31
0.0
  0
LINE
  5
2155
330
1E
100
AcDbEntity
  8
SC
100
AcDbLine
 10
226.2977692307693
 20
156.028
 30
0.0
 11
226.031
 21
144.028
 31
0.0
  0
LINE
  5
2156
330
1E
100
AcDbEntity
  8
SC
100
AcDbLine
 10
227.2977692307693
 20
156.028
 30
0.0
 11
227.0309999999999
 21
144.028
 31
0.0
  0
LINE
  5
2157
330
1E
100
AcDbEntity
  8
SC
100
AcDbLine
 10
228.2977692307693
 20
156.028
 30
0.0
 11
228.031
 21
144.028
 31
0.0
  0
LINE
  5
2158
330
1E
100
AcDbEntity
  8
SC
100
AcDbLine
 10
229.2977692307693
 20
156.028
 30
0.0
 11
229.0309999999999
 21
144.028
 31
0.0
  0
LINE
  5
2159
330
1E
100
AcDbEntity
  8
SC
100
AcDbLine
 10
230.2977692307693
 20
156.028
 30
0.0
 11
230.031
 21
144.028
 31
0.0
  0
LINE
  5
215A
330
1E
100
AcDbEntity
  8
SC
100
AcDbLine
 10
231.2977692307693
 20
156.028
 30
0.0
 11
231.0309999999999
 21
144.028
 31
0.0
  0
LINE
  5
215B
330
1E
100
AcDbEntity
  8
SC
100
AcDbLine
 10
232.2977692307693
 20
156.028
 30
0.0
 11
232.031
 21
144.028
 31
0.0
  0
LINE
  5
215C
330
1E
100
AcDbEntity
  8
SC
100
AcDbLine
 10
233.2977692307693
 20
156.028
 30
0.0
 11
233.0309999999999
 21
144.028
 31
0.0
  0
LINE
  5
215D
330
1E
100
AcDbEntity
  8
SC
100
AcDbLine
 10
234.2977692307693
 20
156.028
 30
0.0
 11
234.031
 21
144.028
 31
0.0
  0
LINE
  5
215E
330
1E
100
AcDbEntity
  8
SC
100
AcDbLine
 10
235.2977692307693
 20
156.028
 30
0.0
 11
235.0309999999999
 21
144.028
 31
0.0
  0
LINE
  5
215F
330
1E
100
AcDbEntity
  8
SB
100
AcDbLine
 10
209.5946019004025
 20
156.028
 30
0.0
 11
236.4421640328701
 21
156.028
 31
0.0
  0
LINE
  5
2160
330
1E
100
AcDbEntity
  8
SB
100
AcDbLine
 10
247.5771061045348
 20
144.028
 30
0.0
 11
226.4756567551294
 21
144.028
 31
0.0
  0
LINE
  5
2161
330
1E
100
AcDbEntity
  8
SB
100
AcDbLine
 10
246.2658734707643
 20
143.028
 30
0.0
 11
228.2759965242206
 21
143.028
 31
0.0
  0
LINE
  5
2162
330
1E
100
AcDbEntity
  8
SB
100
AcDbLine
 10
213.0991953520418
 20
157.028
 30
0.0
 11
235.5724088679985
 21
157.028
 31
0.0
  0
LINE
  5
2163
330
1E
100
AcDbEntity
  8
SC
 48
0.2
100
AcDbLine
 10
238.73607672874
 20
154.01
 30
0.0
 11
237.9980000000001
 21
154.01
 31
0.0
  0
LINE
  5
2164
330
1E
100
AcDbEntity
  8
SC
 48
0.2
100
AcDbLine
 10
244.077495247876
 20
152.01
 30
0.0
 11
237.9980000000001
 21
152.01
 31
0.0
  0
ARC
  5
2165
330
1E
100
AcDbEntity
  8
SC
 48
0.2
100
AcDbCircle
 10
237.9980000000001
 20
153.01
 30
0.0
 40
1.0
100
AcDbArc
 50
90.0
 51
270.0
  0
ARC
  5
2166
330
1E
100
AcDbEntity
  8
SC
 48
0.2
100
AcDbCircle
 10
238.018
 20
147.028
 30
0.0
 40
1.0
100
AcDbArc
 50
90.0
 51
270.0
  0
LINE
  5
2167
330
1E
100
AcDbEntity
  8
SC
 48
0.2
100
AcDbLine
 10
248.018
 20
146.028
 30
0.0
 11
238.018
 21
146.028
 31
0.0
  0
LINE
  5
2168
330
1E
100
AcDbEntity
  8
SC
 48
0.2
100
AcDbLine
 10
248.018
 20
148.028
 30
0.0
 11
238.018
 21
148.028
 31
0.0
  0
LINE
  5
2169
330
1E
100
AcDbEntity
  8
SC
100
AcDbLine
 10
248.018
 20
151.4157837653117
 30
0.0
 11
248.018
 21
144.3814471471071
 31
0.0
  0
SPLINE
  5
216A
330
1E
100
AcDbEntity
  8
SB
100
AcDbSpline
210
0.0
220
0.0
230
1.0
 70
     8
 71
     3
 72
    10
 73
     6
 74
     0
 42
0.0000000001
 43
0.0000000001
 40
0.0
 40
0.0
 40
0.0
 40
0.0
 40
9.38480394041346
 40
19.87991642194506
 40
26.78184546307163
 40
26.78184546307163
 40
26.78184546307163
 40
26.78184546307163
 10
234.762
 20
158.028
 30
0.0
 10
236.5935565481302
 20
155.7413593053365
 30
0.0
 10
240.4733596138182
 20
150.8975473103759
 30
0.0
 10
257.9011978595427
 20
151.8433483579041
 30
0.0
 10
246.7745893013334
 20
143.2933276400287
 30
0.0
 10
244.8329293703444
 20
142.028
 30
0.0
  0
SPLINE
  5
216B
330
1E
100
AcDbEntity
  8
SB
100
AcDbSpline
210
0.0
220
0.0
230
1.0
 70
     8
 71
     3
 72
    10
 73
     6
 74
     4
 42
0.0000000001
 43
0.0000000001
 44
0.0000000001
 13
0.0
 23
-1.0
 33
0.0
 40
0.0
 40
0.0
 40
0.0
 40
0.0
 40
16.47429649484312
 40
44.70168477289678
 40
46.36146066138292
 40
46.36146066138292
 40
46.36146066138292
 40
46.36146066138292
 10
216.736
 20
158.028
 30
0.0
 10
209.3473924200372
 20
156.008265856573
 30
0.0
 10
189.2989972091387
 20
150.5278789379091
 30
0.0
 10
219.2767695539107
 20
148.8544629741722
 30
0.0
 10
229.004
 20
142.5812586294953
 30
0.0
 10
229.004
 20
142.028
 30
0.0
 11
216.736
 21
158.028
 31
0.0
 11
201.219
 21
152.4939999999999
 31
0.0
 11
227.894
 21
143.262
 31
0.0
 11
229.004
 21
142.028
 31
0.0
  0
LINE
  5
216C
330
1E
100
AcDbEntity
  8
SA
100
AcDbLine
 10
127.293
 20
142.028
 30
0.0
 11
157.293
 21
142.028
 31
0.0
  0
LINE
  5
216D
330
1E
100
AcDbEntity
  8
SA
100
AcDbLine
 10
127.293
 20
158.028
 30
0.0
 11
157.293
 21
158.028
 31
0.0
  0
LINE
  5
216E
330
1E
100
AcDbEntity
  8
SA
100
AcDbLine
 10
253.018
 20
142.028
 30
0.0
 11
164.6747897676734
 21
142.028
 31
0.0
  0
LINE
  5
216F
330
1E
100
AcDbEntity
  8
SA
100
AcDbLine
 10
253.018
 20
158.028
 30
0.0
 11
253.018
 21
142.028
 31
0.0
  0
LINE
  5
2170
330
1E
100
AcDbEntity
  8
SA
100
AcDbLine
 10
157.293
 20
158.028
 30
0.0
 11
173.0396044678055
 21
158.028
 31
0.0
  0
LINE
  5
2171
330
1E
100
AcDbEntity
  8
SA
100
AcDbLine
 10
92.293
 20
158.028
 30
0.0
 11
92.293
 21
142.028
 31
0.0
  0
LINE
  5
2172
330
1E
100
AcDbEntity
  8
SA
100
AcDbLine
 10
127.293
 20
158.028
 30
0.0
 11
92.293
 21
158.028
 31
0.0
  0
LINE
  5
2173
330
1E
100
AcDbEntity
  8
SA
100
AcDbLine
 10
127.293
 20
142.028
 30
0.0
 11
92.293
 21
142.028
 31
0.0
  0
LINE
  5
2174
330
1E
100
AcDbEntity
  8
SA
100
AcDbLine
 10
253.018
 20
158.028
 30
0.0
 11
253.018
 21
156.028
 31
0.0
  0
LINE
  5
2175
330
1E
100
AcDbEntity
  8
SA
100
AcDbLine
 10
253.018
 20
156.028
 30
0.0
 11
303.018
 21
156.028
 31
0.0
  0
LINE
  5
2176
330
1E
100
AcDbEntity
  8
SA
100
AcDbLine
 10
303.018
 20
156.028
 30
0.0
 11
303.018
 21
153.028
 31
0.0
  0
LINE
  5
2177
330
1E
100
AcDbEntity
  8
SA
100
AcDbLine
 10
303.018
 20
153.028
 30
0.0
 11
253.018
 21
153.028
 31
0.0
  0
LINE
  5
2178
330
1E
100
AcDbEntity
  8
SA
100
AcDbLine
 10
253.018
 20
142.028
 30
0.0
 11
253.018
 21
144.028
 31
0.0
  0
LINE
  5
2179
330
1E
100
AcDbEntity
  8
SA
100
AcDbLine
 10
253.018
 20
144.028
 30
0.0
 11
303.018
 21
144.028
 31
0.0
  0
LINE
  5
217A
330
1E
100
AcDbEntity
  8
SA
100
AcDbLine
 10
303.018
 20
144.028
 30
0.0
 11
303.018
 21
147.028
 31
0.0
  0
LINE
  5
217B
330
1E
100
AcDbEntity
  8
SA
100
AcDbLine
 10
303.018
 20
147.028
 30
0.0
 11
253.018
 21
147.028
 31
0.0
  0
LINE
  5
217C
330
1E
100
AcDbEntity
  8
SA
100
AcDbLine
 10
303.018
 20
156.028
 30
0.0
 11
303.018
 21
155.528
 31
0.0
  0
LINE
  5
217D
330
1E
100
AcDbEntity
  8
SA
100
AcDbLine
 10
303.018
 20
155.528
 30
0.0
 11
383.018
 21
155.528
 31
0.0
  0
LINE
  5
217E
330
1E
100
AcDbEntity
  8
SA
100
AcDbLine
 10
383.018
 20
155.528
 30
0.0
 11
383.018
 21
153.528
 31
0.0
  0
LINE
  5
217F
330
1E
100
AcDbEntity
  8
SA
100
AcDbLine
 10
383.018
 20
153.528
 30
0.0
 11
303.018
 21
153.528
 31
0.0
  0
LINE
  5
2180
330
1E
100
AcDbEntity
  8
SA
100
AcDbLine
 10
303.018
 20
147.028
 30
0.0
 11
303.018
 21
146.528
 31
0.0
  0
LINE
  5
2181
330
1E
100
AcDbEntity
  8
SA
100
AcDbLine
 10
303.018
 20
146.528
 30
0.0
 11
383.018
 21
146.528
 31
0.0
  0
LINE
  5
2182
330
1E
100
AcDbEntity
  8
SA
100
AcDbLine
 10
383.018
 20
146.528
 30
0.0
 11
383.018
 21
144.528
 31
0.0
  0
LINE
  5
2183
330
1E
100
AcDbEntity
  8
SA
100
AcDbLine
 10
383.018
 20
144.528
 30
0.0
 11
303.018
 21
144.528
 31
0.0
  0
LINE
  5
2189
330
1E
100
AcDbEntity
  8
SC
100
AcDbLine
 10
92.293
 20
141.028
 30
0.0
 11
92.293
 21
118.8260002101738
 31
0.0
  0
LINE
  5
218A
330
1E
100
AcDbEntity
  8
SC
100
AcDbLine
 10
253.018
 20
141.028
 30
0.0
 11
253.018
 21
118.8260002101738
 31
0.0
  0
LINE
  5
218B
330
1E
100
AcDbEntity
  8
SC
100
AcDbLine
 10
94.793
 20
120.8260002101738
 30
0.0
 11
250.518
 21
120.8260002101738
 31
0.0
  0
SOLID
  5
218C
330
1E
100
AcDbEntity
  8
SC
100
AcDbTrace
 10
94.793
 20
121.2426668768404
 30
0.0
 11
94.793
 21
120.4093335435071
 31
0.0
 12
92.293
 22
120.8260002101738
 32
0.0
 13
92.293
 23
120.8260002101738
 33
0.0
  0
SOLID
  5
218D
330
1E
100
AcDbEntity
  8
SC
100
AcDbTrace
 10
250.518
 20
121.2426668768404
 30
0.0
 11
250.518
 21
120.4093335435071
 31
0.0
 12
253.018
 22
120.8260002101738
 32
0.0
 13
253.018
 23
120.8260002101738
 33
0.0
  0
TEXT
  5
2196
330
1E
100
AcDbEntity
  8
MO
100
AcDbText
 10
272.5816666666666
 20
42.769
 30
0.0
 40
4.375
  1
W
  7
0
 72
     1
 11
274.665
 21
42.769
 31
0.0
100
AcDbText
  0
SOLID
  5
219D
330
1E
100
AcDbEntity
  8
SC
100
AcDbTrace
 10
355.277672983486
 20
156.6070362579069
 30
0.0
 11
354.3032175474416
 21
154.8289620990838
 31
0.0
 12
354.648327016514
 22
156.8269637420931
 32
0.0
 13
354.648327016514
 23
156.8269637420931
 33
0.0
1001
ACAD
1000
DSTYLE
1002
{
1070
   147
1040
0.09
1070
    77
1070
     0
1002
}
  0
TEXT
  5
21AA
330
1E
100
AcDbEntity
  8
MO
100
AcDbText
 10
83.29774096033771
 20
166.8339998390999
 30
0.0
 40
6.0
  1
Aφ
 50
90.0
  7
0
100
AcDbText
  0
LINE
  5
21AB
330
1E
100
AcDbEntity
  8
SC
100
AcDbLine
 10
83.94716863072602
 20
158.028
 30
0.0
 11
83.94716863072602
 21
179.5669999521311
 31
0.0
  0
SOLID
  5
21AC
330
1E
100
AcDbEntity
  8
SC
100
AcDbTrace
 10
83.53050196405934
 20
160.528
 30
0.0
 11
84.36383529739272
 21
160.528
 31
0.0
 12
83.94716863072602
 22
158.028
 32
0.0
 13
83.94716863072602
 23
158.028
 33
0.0
  0
SOLID
  5
21AD
330
1E
100
AcDbEntity
  8
SC
100
AcDbTrace
 10
83.53050196405934
 20
139.528
 30
0.0
 11
84.36383529739272
 21
139.528
 31
0.0
 12
83.94716863072602
 22
142.028
 32
0.0
 13
83.94716863072602
 23
142.028
 33
0.0
  0
LINE
  5
21AE
330
1E
100
AcDbEntity
  8
SC
100
AcDbLine
 10
83.94716863072602
 20
158.028
 30
0.0
 11
83.94716863072602
 21
134.3059999521311
 31
0.0
  0
LINE
  5
21AF
330
1E
100
AcDbEntity
  8
SC
100
AcDbLine
 10
91.293
 20
142.028
 30
0.0
 11
81.94716863072603
 21
142.028
 31
0.0
  0
LINE
  5
21B0
330
1E
100
AcDbEntity
  8
SC
100
AcDbLine
 10
91.293
 20
158.028
 30
0.0
 11
81.94716863072603
 21
158.028
 31
0.0
  0
TEXT
  5
21B7
330
1E
100
AcDbEntity
  8
MO
100
AcDbText
 10
172.8667082212532
 20
122.0262970329665
 30
0.0
 40
6.0
  1
B
  7
0
100
AcDbText
  0
LEADER
  5
21B9
330
1E
100
AcDbEntity
  8
SC
100
AcDbLeader
  3
Standard
 76
     3
 10
297.018
 20
155.828
 30
0.0
 10
302.749
 20
169.107
 30
0.0
 10
320.137
 20
169.107
 30
0.0
1001
ACAD
1000
DSTYLE
1002
{
1070
   147
1040
0.09
1070
    77
1070
     0
1002
}
  0
TEXT
  5
21C0
330
1E
100
AcDbEntity
  8
MO
100
AcDbText
 10
305.8022619679117
 20
169.4460000188304
 30
0.0
 40
2.799999999999999
  1
圧着端子
  7
0
100
AcDbText
  0
ENDSEC
  0
SECTION
  2
OBJECTS
  0
DICTIONARY
  5
C
330
0
100
AcDbDictionary
281
     1
  3
ACAD_COLOR
350
1793
  3
ACAD_GROUP
350
D
  3
ACAD_LAYOUT
350
19
  3
ACAD_MATERIAL
350
1792
  3
ACAD_MLINESTYLE
350
16
  3
ACAD_PLOTSETTINGS
350
18
  3
ACAD_PLOTSTYLENAME
350
E
  3
ACAD_TABLESTYLE
350
17A5
  3
ACDBHEADERROUNDTRIPXREC
350
21C6
  3
AcDbVariableDictionary
350
17B5
  0
DICTIONARY
  5
1793
102
{ACAD_REACTORS
330
C
102
}
330
C
100
AcDbDictionary
281
     1
  0
DICTIONARY
  5
D
102
{ACAD_REACTORS
330
C
102
}
330
C
100
AcDbDictionary
281
     1
  0
DICTIONARY
  5
19
102
{ACAD_REACTORS
330
C
102
}
330
C
100
AcDbDictionary
281
     1
  3
Model
350
21
  3
ﾚｲｱｳﾄ1
350
1D
  0
DICTIONARY
  5
1792
102
{ACAD_REACTORS
330
C
102
}
330
C
100
AcDbDictionary
281
     1
  0
DICTIONARY
  5
16
102
{ACAD_REACTORS
330
C
102
}
330
C
100
AcDbDictionary
281
     1
  3
Standard
350
17
  0
DICTIONARY
  5
18
102
{ACAD_REACTORS
330
C
102
}
330
C
100
AcDbDictionary
281
     1
  0
ACDBDICTIONARYWDFLT
  5
E
102
{ACAD_REACTORS
330
C
102
}
330
C
100
AcDbDictionary
281
     1
  3
Normal
350
F
100
AcDbDictionaryWithDefault
340
F
  0
DICTIONARY
  5
17A5
102
{ACAD_REACTORS
330
C
102
}
330
C
100
AcDbDictionary
281
     1
  3
Standard
350
17A6
  0
DICTIONARY
  5
21C6
102
{ACAD_REACTORS
330
C
102
}
330
C
100
AcDbDictionary
281
     1
  3
COLORDICT
350
21C8
  3
MATERIALDICT
350
21C7
  0
DICTIONARY
  5
17B5
102
{ACAD_REACTORS
330
C
102
}
330
C
100
AcDbDictionary
281
     1
  3
CTABLESTYLE
350
17B6
  3
DIMASSOC
350
1C8D
  3
PROJECTNAME
350
1C8E
  0
LAYOUT
  5
21
102
{ACAD_XDICTIONARY
360
21CB
102
}
102
{ACAD_REACTORS
330
19
102
}
330
19
100
AcDbPlotSettings
  1

  2
PrimoPDF
  4
A4
  6
HYOU
 40
3.174999952316284
 41
3.174999952316284
 42
3.175003051757812
 43
3.17498779296875
 44
210.0156707763672
 45
297.0106506347656
 46
-1.0
 47
10.0
 48
0.0
 49
0.0
140
0.0
141
0.0
142
1.0
143
1.458272291292898
 70
 11952
 72
     1
 73
     1
 74
     2
  7
monochrome.ctb
 75
     0
147
0.6857429891323
148
0.0
149
0.0
100
AcDbLayout
  1
Model
 70
     1
 71
     0
 10
0.0
 20
0.0
 11
12.0
 21
9.0
 12
0.0
 22
0.0
 32
0.0
 14
0.0
 24
0.0
 34
0.0
 15
0.0
 25
0.0
 35
0.0
146
0.0
 13
0.0
 23
0.0
 33
0.0
 16
1.0
 26
0.0
 36
0.0
 17
0.0
 27
1.0
 37
0.0
 76
     0
330
1E
1001
ACAD_PSEXT
1000
FX DocuPrint 205
1000
FX DocuPrint 205
1000
USB001
1000

1070
     0
  0
LAYOUT
  5
1D
102
{ACAD_XDICTIONARY
360
21C9
102
}
102
{ACAD_REACTORS
330
19
102
}
330
19
100
AcDbPlotSettings
  1

  2
EPSON LP-1500S
  4

  6

 40
0.0
 41
0.0
 42
0.0
 43
0.0
 44
0.0
 45
0.0
 46
0.0
 47
0.0
 48
0.0
 49
0.0
140
0.0
141
0.0
142
1.0
143
1.0
 70
   688
 72
     0
 73
     0
 74
     5
  7
monochrome.ctb
 75
    16
147
1.0
148
0.0
149
0.0
100
AcDbLayout
  1
ﾚｲｱｳﾄ1
 70
     0
 71
     1
 10
0.0
 20
0.0
 11
12.0
 21
9.0
 12
0.0
 22
0.0
 32
0.0
 14
1.000000000000000E+20
 24
1.000000000000000E+20
 34
1.000000000000000E+20
 15
-1.000000000000000E+20
 25
-1.000000000000000E+20
 35
-1.000000000000000E+20
146
0.0
 13
0.0
 23
0.0
 33
0.0
 16
1.0
 26
0.0
 36
0.0
 17
0.0
 27
1.0
 37
0.0
 76
     0
330
1A
  0
MLINESTYLE
  5
17
102
{ACAD_REACTORS
330
16
102
}
330
16
100
AcDbMlineStyle
  2
STANDARD
 70
     0
  3

 62
   256
 51
90.0
 52
90.0
 71
     2
 49
0.5
 62
   256
  6
BYLAYER
 49
-0.5
 62
   256
  6
BYLAYER
  0
ACDBPLACEHOLDER
  5
F
102
{ACAD_REACTORS
330
E
102
}
330
E
  0
ACAD_PROXY_OBJECT
  5
17A6
102
{ACAD_REACTORS
330
17A5
102
}
330
17A5
100
AcDbProxyObject
 90
      499
 91
      503
 95
       25
 70
     0
 93
     1841
310
4214DD185B99185C9928B81E85EB51B8AE3F2E07A17AD46E2B8FC02B5E8DC0F42B1CFD028000000C1008070000C3001FDFF8000000C1003FBFF000000182007F7FE00000030400FEFFC00000060801FDFF8000000C1003FBFF00000018200000000000000681FA0B0000001820100E000186003FBFF000000182007F7FE000
310
00030400FEFFC00000060801FDFF8000000C1003FBFF000000182007F7FE000000304000AD7A3703D0AC73F4160000003040201C00030C007F7FE00000030400FEFFC00000060801FDFF8000000C1003FBFF000000182007F7FE00000030400FEFFC000000608000
340
11
340
11
340
11
 94
        0
1001
ACAD
1000
AcRTDxfName
1000
TABLESTYLE
  0
XRECORD
  5
21C8
102
{ACAD_REACTORS
330
21C6
102
}
330
21C6
100
AcDbXrecord
280
     1
340
1793
  0
XRECORD
  5
21C7
102
{ACAD_REACTORS
330
21C6
102
}
330
21C6
100
AcDbXrecord
280
     1
340
1792
  0
DICTIONARYVAR
  5
17B6
102
{ACAD_REACTORS
330
17B5
102
}
330
17B5
100
DictionaryVariables
280
     0
  1
STANDARD
  0
DICTIONARYVAR
  5
1C8D
102
{ACAD_REACTORS
330
17B5
102
}
330
17B5
100
DictionaryVariables
280
     0
  1
1
  0
DICTIONARYVAR
  5
1C8E
102
{ACAD_REACTORS
330
17B5
102
}
330
17B5
100
DictionaryVariables
280
     0
  1

  0
DICTIONARY
  5
21CB
330
21
100
AcDbDictionary
280
     1
281
     1
  3
ACAD_XREC_ROUNDTRIP
360
21CC
  0
DICTIONARY
  5
21C9
330
1D
100
AcDbDictionary
280
     1
281
     1
  3
ACAD_XREC_ROUNDTRIP
360
21CA
  0
XRECORD
  5
21CC
102
{ACAD_REACTORS
330
21CB
102
}
330
21CB
100
AcDbXrecord
280
     1
102
SHADEPLOT
 70
     0
102
SHADEPLOTRESLEVEL
 70
     2
102
SHADEPLOTCUSTOMDPI
 70
   300
  0
XRECORD
  5
21CA
102
{ACAD_REACTORS
330
21C9
102
}
330
21C9
100
AcDbXrecord
280
     1
102
SHADEPLOT
 70
     0
102
SHADEPLOTRESLEVEL
 70
     2
102
SHADEPLOTCUSTOMDPI
 70
   300
  0
ENDSEC
  0
EOF
